Lil Flip - Sunshine Chords & Tabs

 

Sunshine Chords & Tabs

Lil Flip Chords & Tabs

Version: 2 Type: Tab 0 ratings
1 star 2 stars 3 stars 4 stars 5 stars
comments

Sunshine Tab

   
Sunshine - Lil Flip ft. Lea

Tabbed by: dan ungson
           ryke

Email: danericu@yahooo.com

Tuning: standard

e|----------6-----6s8---6---6----------6s8-----6---6----------|
B|----------6-----6-----6---6----------6-------6---6----------|
G|------------------------------------------------------------|
D|------------------------------------------------------------|
A|------------------------------------------------------------|
E|------------------------------------------------------------|

                           then...

e|----------6s8---6---5-----4---x---5---x----------|
B|----------6-----6---4-----4---x---5---x----------|
G|-------------------------------------------------|
D|-------------------------------------------------|
A|-------------------------------------------------|
E|-------------------------------------------------|

         repeated throughout the whole song

capo: 1st fret

e|----------5-----5s7---5---5----------5s7-----5---5----------|
B|----------5-----5-----5---5----------5-------5---5----------|
G|------------------------------------------------------------|
D|------------------------------------------------------------|
A|------------------------------------------------------------|
E|------------------------------------------------------------|

                           then...

e|----------5s7---5---4-----3---x---4---x----------|
B|----------5-----5---3-----3---x---4---x----------|
G|-------------------------------------------------|
D|-------------------------------------------------|
A|-------------------------------------------------|
E|-------------------------------------------------|

         repeated throughout the whole song

capo: 2nd fret
[ Tab from: http://www.guitartabs.cc/tabs/l/lil_flip/sunshine_tab_ver_2.html ]
e|----------4-----4s6---4---4----------4s6-----4---4----------|
B|----------4-----4-----4---4----------4-------4---4----------|
G|------------------------------------------------------------|
D|------------------------------------------------------------|
A|------------------------------------------------------------|
E|------------------------------------------------------------|

                           then...

e|----------4s6---4---3-----2---x---3---x----------|
B|----------4-----4---2-----2---x---3---x----------|
G|-------------------------------------------------|
D|-------------------------------------------------|
A|-------------------------------------------------|
E|-------------------------------------------------|

         repeated throughout the whole song

capo: 3rd fret

e|----------3-----3s5---3---3----------3s5-----3---3----------|
B|----------3-----3-----3---3----------3-------3---3----------|
G|------------------------------------------------------------|
D|------------------------------------------------------------|
A|------------------------------------------------------------|
E|------------------------------------------------------------|

                           then...

e|----------3s5---3---2-----1---x---2---x----------|
B|----------3-----3---1-----1---x---2---x----------|
G|-------------------------------------------------|
D|-------------------------------------------------|
A|-------------------------------------------------|
E|-------------------------------------------------|

         repeated throughout the whole song

| s  slide up
| \  slide down
| h  hammer-on
| p  pull-off
| ~  vibrato
| +  harmonic
| x  Mute note

TNT
SOUND FADED
===============================================================================
Comments