Lihtsalt Laulud - Ootus Chords & Tabs

 

Ootus Chords & Tabs

Lihtsalt Laulud Chords & Tabs

Version: 1 Type: Chords 1 rating
1 star 2 stars 3 stars 4 stars 5 stars
comments

Ootus Chords

   
                                      OOTUS
--------------------------------------------------------------------------------------------------
                                   estonian song


intro:
e|-----------------3---------3-----------0-------3---3---3-3-3|
B|-----------------0---------0-----------0-------0---0---0-0-0|
G|-----------------0---------0-----------0-------0---0---0-0-0|
D|-----------------0---------0-0-0-0-0-0-0-0-0-0-0-0-0-0-0-0-0|
A|-----------------2---------2-2-2-2-2-2-2-2-2-2-2-2-2-2-2-2-2|
E|-3-3-3-3-3-3-3-3-3-3-3-3-3-3-3-3-3-3-3-3-3-3-3-3-3-3-3-3-3-3|
verse:
G                              Em
ma ei taha enam                oodata
Am                             D
ma ei suuda enam               oodata
G                              Em
oodata                         oodata
Am                             D
oodata                         oodata

G                              Em  
ma ei taha minna               ma ei taha sinna
Am                             D
kus jälle peab                 ootama
G                              Em
ootama                         ootama
Am                             D
ootama                         ootama
[ Tab from: http://www.guitartabs.cc/tabs/l/lihtsalt_laulud/ootus_crd.html ]
G                              Em
ma ei taha seda                ma ei taha teda
Am                             D
et ei saaks ma jälle           ootada
G                              Em
oodata                         oodata
Am                             D
oodata                         oodata



ref:
(quicker)
G
nüüd kus olen sinu juures 
Em
enam ma ei pea
Am
kunagi
D
ootama

verse:
G                              Em
ei pea                         ootama
Am                             D
pole tarvis                    oodata
G                              Em
oodata                         oodata
Am                             D
oodata                         oodata
G                              Em
oodata                         oodata
Am                             D
oodata                         oodata

outro:
e|-----------------3---------3-----------0-------3---3---3-3-3|
B|-----------------0---------0-----------0-------0---0---0-0-0|
G|-----------------0---------0-----------0-------0---0---0-0-0|
D|-----------------0---------0-0-0-0-0-0-0-0-0-0-0-0-0-0-0-0-0|
A|-----------------2---------2-2-2-2-2-2-2-2-2-2-2-2-2-2-2-2-2|
E|-3-3-3-3-3-3-3-3-3-3-3-3-3-3-3-3-3-3-3-3-3-3-3-3-3-3-3-3-3-3|
(every chord once)
G Em Am D

e|-----------3-|
B|---------0---|
G|-------0-----|
D|-----0-------|
A|---2---------|
E|-3-----------|



tonissoots@hot.ee
Comments