Lightyear - Uri Gellar Bent My Heart Chords & Tabs

 

Uri Gellar Bent My Heart Chords & Tabs

Lightyear Chords & Tabs

Version: 1 Type: Tab 0 ratings
1 star 2 stars 3 stars 4 stars 5 stars
comments

Uri Gellar Bent My Heart Tab

#----------------------------------PLEASE NOTE--------------------------------#
#This file is the author's own work and represents their interpretation of the#
#song. You may only use this file for private study, scholarship, or research.#
#-----------------------------------------------------------------------------#
#-- File created with Instab - http://www.pconline.com/~smcarey/instab.html --#
#-----------------------------------------------------------------------------#

Author/Artist: lightyear
Title: uri gellar bent my heart
Transcribed by: paul
Email: aint_life_a_bitc_h@hotmail.com

-|-----------------------|--------------------------------------------|-----|
-|-----------------------|--------------------------------------------|-----|
-|-----------------------|-55555555--------------44444444-------------|-----|
-|-222222222222222222222-|-55555555--5555555555--44444444---222222222-|-5454|
-|-222222222222222222222-|-33333333--5555555555--22222222---222222222-|-----|
-|-000000000000000000000-|-----------3333333333-------------000000000-|-----|
        all palm muted                                                                      
[ Tab from: http://www.guitartabs.cc/tabs/l/lightyear/uri_gellar_bent_my_heart_tab.html ]
-|----------------------|------------------------------------|---------------
-|----------------------|------------------------------------|---------------
-|----4-4---------------|-55555-7777777----------------------|---------------
-|-5--4-4--22---54545---|-55555-7777777---5555--5555--2222---|---------------
-|-5--2-2--22---32323---|-33333-5555555---5555--5555--2222---|---------------
-|-3-------00-----------|-----------------3333--2222--0000---|---------------
              verse is intro palm muted. then this (watch the muting)               

-|------------------------------------------------------|--------------------
-|------------------------------------------------------|--------------------
-|------------------------------------------------------|--------------------
-|---3---3---4---3---4---3---3---3---3---3---3---3---3--|--------------------
-|-1---1---1---1---1-------------------0---0---0---0----|--------------------
-|---------------------2---2---2---2--------------------|--------------------
         political part (i think this is right)        


here is (what i think the political part is)
... means i dont know

we did not authorize the invasion of iraq
we did not authorize the invasion of iran
we did not authorize the invasion of north korea
we did not authorize the bombing of civilians in afghanistan
we did not authorize the permenant detainings of.....in.....bay
we did not authorize the withdrawl from the geneva convention
we did not authorize military tribunals suspending dues to process and.......
we did not authorize assasination squads
we did not authorize the ressurection of.............(some guy)
we did not authorize .................................
we did not authorize the ammendment of the constitution
we did not authorize national identity cards
we did not authorize .........................................
we did not authorize the eye for an eye, nor did we ask for the blood of innocent 
people whe perished on september th 11th to avenge for the blood of innocent villagers
in afghanistan
we did not authorize the administration to wage war any time, any where, any how it pleases
we did not authorize war without end
we did not authorize the perish of orur economy.
Comments