Lightyear - A Pack Of Dogs Chords & Tabs

 

A Pack Of Dogs Chords & Tabs

Lightyear Chords & Tabs

Version: 1 Type: Bass Tab 0 ratings
1 star 2 stars 3 stars 4 stars 5 stars
comments

A Pack Of Dogs Bass Tab

got to http://www.lightyearuk.com for more information


Lightyear - A Pack Of Dogs (Call Of The Weasel Clan)

Intro
G|--------------------------------------|
D|--3-----------------3-----------------|
A|--------3--1-----3--------3--1-----3--|
E|--------------------------------------|

G|-------------------------|
D|--3-3--3-3---------------|
A|-----------3-1-1--1-1-3--|
E|-------------------------|

Verse
G|-------------------------|
D|--3-3--3-3---------------|
A|-----------3-1-1--1-1-3--|
E|-------------------------|

"Will you stand by me in a stand by world"
G|-----------------------|
D|--3-----------3--------|
A|-----------------------|
E|-----------------------|
[ Tab from: http://www.guitartabs.cc/tabs/l/lightyear/a_pack_of_dogs_btab.html ]
Chorus
G|-----------------------------------|
D|-----------------------------------| X4
A|-------------3-3-3-1-1-1-----------|
E|----1-1-1-1------------------------|

G|----------------------------------|
D|----------------------------------|
A|--------3-1------------3-1-----3--|
E|--1-------------------------------|

2nd Chorus
G|-----------------------------------|
D|-----------------------------------| X4
A|------------------3---3-3-1---1-1--|
E|--1---1---1---1-1------------------|


Bridge (starts when the name chanting begins)
G|-----------------------------|
D|-----------------------------| X2
A|--------3-1-----3-------3-1--|
E|--1---------------1----------|

End
G|-----------------------------------| Repeat this until the end and end on
D|-----------------------------------| fret one on the E string.
A|------------------3-3-3-1-1---1----|
E|--1-1---1-1-1-1--------------------|
Comments