Lightspeed Champion - Marlene Chords & Tabs

 

Lightspeed Champion Chords & Tabs

Version: 1 Type: Tab 0 ratings
1 star 2 stars 3 stars 4 stars 5 stars
comments

Marlene Tab

   
This tab is based upon the acoustic version of the song that can be found here:
http://www.youtube.com/watch?v=RfruiUMBjvM

there's a lot of stuff that i'm not sure about but these are the basic chords etc

Intro
e|--0---12--0--------0-12--0------0---12--0--------0-12-0--|
B|---------------------------------------------------------|
G|---------------------------------------------------------|
D|---------------------------------------------------------|
A|---------------------------------------------------------|
E|---------------------------------------------------------|

e|---3----------0-----------x------------0-----------------|
B|---2----------2-----------3------------2-----------------|
G|---0----------2-----------2------------2-----------------|
D|---0----------0-----------0------------0-----------------|
A|---3----------0-----------1------------0-----------------|
E|---3----------0-----------0------------0-----------------|
     G          Em          C            Em

Verse

e|---3----------0-----------x------------0-----------------|
B|---2----------2-----------3------------2-----------------|
G|---0----------2-----------2------------2-----------------|
D|---0----------0-----------0------------0-----------------|
A|---3----------0-----------1------------0-----------------|
E|---3----------0-----------0------------0-----------------|
     G          Em          C            Em
     Stick a spoon into your
                Heart
                            And eat away all your deutch
                                         Marks
[ Tab from: http://www.guitartabs.cc/tabs/l/lightspeed_champion/marlene_tab.html ]
Coruse
e|---3----------0---0-----------x--------------x---x-------|
B|---2----------2---2-----------0--------------0---x-------|
G|---0----------2---2-----------2--------------2---0-------|
D|---0----------0---0-----------2--------------2---2-------|
A|---3----------0---0-----------1--------------1---3-------|
E|---3----------0---2-----------0--------------0---2-------|
     G         Em   Em          Am             Am  D
     Night time running
               In and out of
                    Cars
                                i'm treading on my nerves
                                               No i won't make a move
                                                   First

Bridge
e|---0----------x---------x--------3-------x-------0-------|
B|---2----------0---------x--------2-------x-------2-------|
G|---2----------2---------0--------0-------0-------2-------|
D|---0----------2---------2--------0-------2-------0-------|
A|---0----------1---------3--------3-------3-------0-------|
E|---0----------0---------2--------3-------2-------0-------|
     Em         Am        D        G       D       Em
     I'm ready to give up on you
                Now, i'm waiting till the sun has gone
                          Down, i'm waiting for a strand of your
                                   Golden locks to
                                           Sew my stomache
                                                   Shut

e|--0----------x---------x-------?-------------------------|
B|--2----------0---------x-------?-------------------------|
G|--2----------2---------0-------?-------------------------|
D|--0----------2---------2-------?-------------------------|
A|--0----------1---------3-------?-------------------------|
E|--0----------0---------2-------?-------------------------|
    Em         Am        D       ?(Not sure about this chord some sort of D)
    and everybody knows you want a
               Baby, and god knows everybody wants one
                         two, had some promises i keep on
                                 Breaking, man i don't know what to do

then it goes into the solo which is based around Em, i just do Em and hammer on the high 
at the second fret and it goes
back into the verse chords with lots of hammering etc and the rest which i can't rele 
out, but hopefully
someone will...one day

hope this helped
Comments
Lightspeed Champion chords | Lightspeed Champion Marlene tab