Lightman Toby - Leave It Inside Chords & Tabs

 

Leave It Inside Chords & Tabs

Lightman Toby Chords & Tabs

Version: 1 Type: Tab 0 ratings
1 star 2 stars 3 stars 4 stars 5 stars
comments

Leave It Inside Tab

Toby Lightman
"Leave It Inside"
from the album "Little Things"
tabbed by Jason Shank (jms483@hotmail.com)

Standard tuning

\ = down stroke

/ = up stroke

>>> = slide

This one's a little tougher, and as such it took me a
little while to figure it out.  I think I've got it
pretty close, if not right on.  Either way, it sounds
good and should work.  As always, I'll leave it to 
you to figure out the strumming patterns and how the 
chords match with lyrics, though I'll help you a little
bit with this one, as it is kinda tough.  Thanks!


Intro:

    \ \ /  \ \ /  \ \ \  \ \ \ /

e---2-2-2--2-2-2------0--0-0-0-0---------]
B---3-3-3--2-2-3------2--2-2-2-3---------]
G---4-4-4--4-4-4--2-2-2--0-0-0-0---------]
D---4-4-4--4-4-4--2-2-2--0-0-0-0---------]
A---2-2-2--2-2-2--0-0-0--0-0-0-0---------]
E------------------------3-3-3-3---------]

    \ \ /  \ \ /  \ \ \  \ \ \ /   \  \ \ /   \  \ \ /  \
[ Tab from: http://www.guitartabs.cc/tabs/l/lightman_toby/leave_it_inside_tab.html ]
e---2-2-2--2-2-2------0--0-0-0-0---0--0-0-0---0--0-0-0--0--]
B---3-3-3--2-2-3------2--2-2-2-3---2--2-2-3---2--2-2-3--3--]
G---4-4-4--4-4-4--2-2-2--0-0-0-0---0--0-0-0---0--0-0-0--0--]
D---4-4-4--4-4-4--2-2-2--0-0-0-0---0--0-0-0---0--0-0-0--0--]
A---2-2-2--2-2-2--0-0-0--0-0-0-0---0--0-0-0---0--0-0-0--0--]
E------------------------3-3-3-3---3--3-3-3---3--3-3-3--3--]


Verse: 

Listen to the song to get the pattern right.  It's not that hard... 

E--3>>>7-x-7-x-7-xx-9-10-xx--7-x-7-x-7-xx-9-10-xx-----]


Chorus:

   \ \ \  \ \ \  \ / / \ / \ \   \ \ \  \ \ \  \ / / \ / \ \

e------0------0----0-0-0-0-0-0-------0------0----3-3-3-3-3-3---]
B------0------0----0-0-0-0-0-0-------0------0----3-3-3-3-3-3---]
G------0------0----4-4-4-4-4-4-------0------0----4-4-4-4-4-4---]
D------4------4------0-0-0-0-0-------5------5------5-5-5-5-5---]
A------x------x------5-5-5-5-5-------5------5------5-5-5-5-5---]
E--7-7-7--5-5-5--3---3-3-3-3-3---0-0-0--2-2-2--3---3-3-3-3-3---]


Interlude:

E--7-x-7-7-x-7-7-x-7-7-x-7-7-x-7-7-x-7-7-x-7-7-x--------]

Verse
Chorus
Intro
Interlude
Chorus (twice)
Outro (same as Intro)
Comments