Light Funky Ones - Every Other Time Chords & Tabs

 

Every Other Time Chords & Tabs

Light Funky Ones Chords & Tabs

Version: 1 Type: Tab 0 ratings
1 star 2 stars 3 stars 4 stars 5 stars
comments

Every Other Time Tab

#----------------------------------PLEASE NOTE--------------------------------#
#This file is the author's own work and represents their interpretation of the#
#song. You may only use this file for private study, scholarship, or research.#
#-----------------------------------------------------------------------------#
#-- File created with Instab - http://www.pconline.com/~smcarey/instab.html --#
#-----------------------------------------------------------------------------#

Author/Artist: LFO
Title: Every Other Time
Album: Life Is Good
Transcribed by: Jon Santos
Email: guitarjunkie83@lycos.com

Well this is my first here to do a tab. (Good song guys to play to your chick)
I was just chillin', listening to the radio and I tabbed out this song like in 10 minutes.
Pretty simple stuff, everything else sounds right but the into I guess...

[ Tab from: http://www.guitartabs.cc/tabs/l/light_funky_ones/every_other_time_tab.html ]
-|----------------------------------------------------------------------------
-|----------------------------------------------------------------------------
-|----16----15----15b-11--16p15p13h15--11--15---------------------------------
-|-16----16----16-------------------------------------------------------------
-|----------------------------------------------------------------------------
-|----------------------------------------------------------------------------
  (I'm not 100% on the intro, still working on it)                            

-|2-2-2-2--2-2-2-2--4-4-4-4--7-7-7-7------------------------------------------
-|4-4-4-4--2-2-2-2--4-4-4-4--7-7-7-7------------------------------------------
-|4-4-4-4--3-3-3-3--4-4-4-4--8-8-8-8------------------------------------------
-|4-4-4-4--4-4-4-4--6-6-6-6--9-9-9-9------------------------------------------
-|2-2-2-2--4-4-4-4--6-6-6-6--9-9-9-9------------------------------------------
-|2-2-2-2--2-2-2-2--4-4-4-4--7-9-9-9------------------------------------------
  Add a few rakes in there for the "swacka' swacka' part" (haha)  HAVE FUN!!  

Comments