Ligabue - Tra Palco E Realta' (giro D'italia Version) Chords & Tabs

 

Tra Palco E Realta' (giro D'italia Version) Chords & Tabs

Ligabue Chords & Tabs

Version: 1 Type: Tab 0 ratings
1 star 2 stars 3 stars 4 stars 5 stars
comments

Tra Palco E Realta' (giro D'italia Version) Tab

                             ligabue-tra palco e realta' (giro d'italia version)                              


tabbed:zootv
email:stefanohero84@hotmail.it
tuning:standard
note:nel giro d'italia come potete sentire e vedere non suona in sol ma ben si in re,se c'e' da correggere scrivetemi                                                                       



                                                                           
E||-----------------------|-----------------------|-----------------------|
B||----------3------------|----------3------------|----------3------------|
G||--2----2----------0----|--0---------------0----|--2---------------0----|
D||--0------------0-------|-------2-------2-------|-------0-------0-------|
A||-----------------------|-----------------------|-----------------------|
E||-----------------------|--0--------------------|--2--------------------|


                                                                     
--------------------|-----------------------|-----------------------|
--------------------|----------3------------|----------3------------|
--0--------2--------|--2----2----------0----|--0---------------0----|
--0--------2--------|--0------------0-------|-------2-------2-------|
-----------0--------|-----------------------|-----------------------|
--3-----------------|-----------------------|--0--------------------|


                                             2x                         
-----------------------|---------------------||------------------------|
----------3------------|---------------------||-----------3------------|
--2---------------0----|--0--------2--------*||*--0---------------0----|
-------0-------0-------|--0--------2--------*||*-------0-------0-------|
-----------------------|-----------0---------||------------------------|
--2--------------------|--3------------------||---3--------------------|


                                                                          
-----------------------|-----------------------|------------------------||
----------3------------|----------3------------|----------3-------------||
--2---------------0----|--0---------------0----|--2---------------0----*||
-------0-------0-------|-------2-------2-------|-------0-------0-------*||
-----------------------|-----------------------|------------------------||
--2--------------------|--0--------------------|--2---------------------||


                                                                    
-----------------------|-----------------------|-------------------|
----------0------------|----------0------------|--3----------------|
--2------------2-------|--2------------2-------|--0----------------|
-------2----------2----|-------2----------2----|--0----------------|
--0--------------------|--0--------------------|-------------------|
-----------------------|-----------------------|--3----------------|


                                                                     
--------------------|-----------------------|-----------------------|
--------------------|----------3------------|----------3------------|
--0--------2--------|--2----2----------0----|--0---------------0----|
--0--------2--------|--0------------0-------|-------2-------2-------|
-----------0--------|-----------------------|-----------------------|
--3-----------------|-----------------------|--0--------------------|


                                                                     
-----------------------|--------------------|-----------------------|
----------3------------|--------------------|----------3------------|
--2---------------0----|--0--------2--------|--2----2----------0----|
-------0-------0-------|--0--------2--------|--0------------0-------|
-----------------------|-----------0--------|-----------------------|
--2--------------------|--3-----------------|-----------------------|


                                                                     
-----------------------|-----------------------|--------------------|
----------3------------|----------3------------|--------------------|
--0---------------0----|--2---------------0----|--0--------2--------|
-------2-------2-------|-------0-------0-------|--0--------2--------|
-----------------------|-----------------------|-----------0--------|
--0--------------------|--2--------------------|--3-----------------|


                                                                        
-----------------------|-----------------------|-----------------------|
----------3------------|----------3------------|----------3------------|
--0---------------0----|--2---------------0----|--0---------------0----|
-------0-------0-------|-------0-------0-------|-------2-------2-------|
-----------------------|-----------------------|-----------------------|
--3--------------------|--2--------------------|--0--------------------|


                                                                        
-----------------------|-----------------------|-----------------------|
----------3------------|----------0------------|----------0------------|
--2---------------0----|--2------------2-------|--2------------2-------|
-------0-------0-------|-------2----------2----|-------2----------2----|
-----------------------|--0--------------------|--0--------------------|
--2--------------------|-----------------------|-----------------------|

[ Tab from: http://www.guitartabs.cc/tabs/l/ligabue/tra_palco_e_realta_giro_ditalia_version_tab.html ]
                                                                 
-------------------|--------------------|-----------------------|
--3----------------|--------------------|----------3------------|
--0----------------|--0--------2--------|--2----2----------0----|
--0----------------|--0--------2--------|--0------------0-------|
-------------------|-----------0--------|-----------------------|
--3----------------|--3-----------------|-----------------------|


                                                                     
-----------------------|-----------------------|--------------------|
----------3------------|----------3------------|--------------------|
--0---------------0----|--2---------------0----|--0--------2--------|
-------2-------2-------|-------0-------0-------|--0--------2--------|
-----------------------|-----------------------|-----------0--------|
--0--------------------|--2--------------------|--3-----------------|


                                                                        
-----------------------|-----------------------|-----------------------|
----------3------------|----------0------------|----------0------------|
--4---------------4----|--2---------------2----|--0---------------0----|
-------4-------4-------|-------2-------2-------|--0----0-------0-------|
--2--------------------|--0--------------------|-----------------------|
-----------------------|-----------------------|--3--------------------|


                                                                     
--------------------|-----------------------|-----------------------|
--3-----------------|----------3------------|----------0------------|
--0--------2--------|--4---------------4----|--2---------------2----|
--0--------2--------|-------4-------4-------|-------2-------2-------|
-----------0--------|--2--------------------|--0--------------------|
--3-----------------|-----------------------|-----------------------|


                                                                 
-----------------------|--------------------|-------------------|
----------0------------|--3-----------------|-------------------|
--0---------------0----|--0--------2--------|--0----------------|
--0----0-------0-------|--0--------2--------|--0----------------|
-----------------------|-----------0--------|-------------------|
--3--------------------|--3-----------------|--3----------------|


                                                                 
--------------------|-------------------|-----------------------|
--3-----------------|-------------------|----------3------------|
--0--------2--------|--0----------------|--0---------------0----|
--0--------2--------|--0----------------|-------0-------0-------|
-----------0--------|-------------------|-----------------------|
--3-----------------|--3----------------|--3--------------------|


                                                                        
-----------------------|-----------------------|-----------------------|
----------3------------|----------3------------|----------3------------|
--2---------------0----|--0---------------0----|--2---------------0----|
-------0-------0-------|-------2-------2-------|-------0-------0-------|
-----------------------|-----------------------|-----------------------|
--2--------------------|--0--------------------|--2--------------------|


                                                                        
-----------------------|-----------------------|-----------------------|
----------3------------|----------3------------|----------3------------|
--0---------------0----|--2---------------0----|--0---------------0----|
-------0-------0-------|-------0-------0-------|-------2-------2-------|
-----------------------|-----------------------|-----------------------|
--3--------------------|--2--------------------|--0--------------------|


                                                                        
-----------------------|-----------------------|-----------------------|
----------3------------|----------0------------|----------0------------|
--2---------------0----|--2------------2-------|--2------------2-------|
-------0-------0-------|-------2----------2----|-------2----------2----|
-----------------------|--0--------------------|--0--------------------|
--2--------------------|-----------------------|-----------------------|


                                                                    
-------------------|-----------------------|-----------------------|
-------------------|----------3------------|----------3------------|
--0----------------|--0---------------0----|--2---------------0----|
--0----------------|-------0-------0-------|-------0-------0-------|
-------------------|-----------------------|-----------------------|
--3----------------|--3--------------------|--2--------------------|


                                                                        
-----------------------|-----------------------|-----------------------|
----------3------------|----------3------------|----------3------------|
--0---------------0----|--2---------------0----|--0---------------0----|
-------2-------2-------|-------0-------0-------|-------0-------0-------|
-----------------------|-----------------------|-----------------------|
--0--------------------|--2--------------------|--3--------------------|


                                                                        
-----------------------|-----------------------|-----------------------|
----------3------------|----------3------------|----------3------------|
--2---------------0----|--0---------------0----|--0---------------0----|
-------0-------0-------|-------2-------2-------|-------2-------2-------|
-----------------------|-----------------------|-----------------------|
--2--------------------|--0--------------------|--0--------------------|


                                             
---------------------0--|------------------||
------------3b5-3----3--|------------------||
-------2-------------2--|------------------||
--0------------------0--|------------------||
------------------------|------------------||
------------------------|------------------||


Comments