Lifer - Breathless Chords & Tabs

 

Breathless Chords & Tabs

Lifer Chords & Tabs

Version: 2 Type: Bass Tab 0 ratings
1 star 2 stars 3 stars 4 stars 5 stars
comments

Breathless Bass Tab

Drop to D

Intro/verse

G-----------------------------------------------|
D-----------------3-----------------------------|          Repeat
A-------2-----2--------------2------------------|
D-0--5-----3----------0---5------3--------------|


Chorus
[ Tab from: http://www.guitartabs.cc/tabs/l/lifer/breathless_btab_ver_2.html ]
G--------------------------------------------------|
D--------------------------------------------------|           Repeat
A----------3-3-3-------1-1-1-----------------------|
D---3-3-3--------0-0-0-----------------------------|


Outro

G----------------------------------------|
D----------------------------------------|       Repeat till end
A----------------------------------------|
D--0------0-0-0-0-0-0-0-0--000-0---------|
Comments