Lifehouse - You Can Shake The Mountains Chords & Tabs

 

You Can Shake The Mountains Chords & Tabs

Lifehouse Chords & Tabs

Version: 1 Type: Tab 0 ratings
1 star 2 stars 3 stars 4 stars 5 stars
comments

You Can Shake The Mountains Tab

   
Artist: Lifehouse/Blyss
Song: You Can Shake The Mountains
Album: Unreleased (Supposed to be on Diff's Lucky Day)
Tabber: bliss (edgeof2morrow0@hotmail.com)

INTRO
e|--------------------------------------------------------------------------------------------------|
b|-3-5-7-8-5-3--------------------------------------------------------------------------------------|
g|--------------------------------------------------------------------------------------------------|
d|--------------**--7-9-11-12-14-16-16-17-14-12---7-9-11-12-14-14-16-14-12-11-9---7-9-11-11-12--**--|
a|--------------------------------------------------------------------------------------------------|
e|--------------------------------------------------------------------------------------------------|

VERSE 1
e|----------------------------------------------------------------------------------------------|
b|----------------------------------------------------------------------------------------------|
g|----------------------------------------------------------------------------------------------|
d|-14-16-(16)-17-14-12---7-9-11-12-14-16-17-14-12---7-9-11-12-14-16-14-12-11-9---7-9-11-11-12---|
a|----------------------------------------------------------------------------------------------|
e|----------------------------------------------------------------------------------------------|

CHORUS - D/F# Em7
[ Tab from: http://www.guitartabs.cc/tabs/l/lifehouse/you_can_shake_the_mountains_tab.html ]
VERSE 2
e|----------------------------------------------------------------------------------------------|
b|----------------------------------------------------------------------------------------------|
g|----------------------------------------------------------------------------------------------|
d|-14-16-(16)-17-14-12---7-9-11-12-14-16-17-14-12---7-9-11-12-14-16-14-12-11-9---7-9-11-11-12---|
a|----------------------------------------------------------------------------------------------|
e|----------------------------------------------------------------------------------------------|

CHORUS - D/F# Em7

VERSE 3
e|----------------------------------------------------------------------------------------------|
b|----------------------------------------------------------------------------------------------|
g|----------------------------------------------------------------------------------------------|
d|-14-16-(16)-17-14-12---7-9-11-12-14-16-17-14-12---7-9-11-12-14-16-14-12-11-9---7-9-11-11-12---|
a|----------------------------------------------------------------------------------------------|
e|----------------------------------------------------------------------------------------------|

CHORUS - D/F# Em7

OUTRO
e|----------------------------|
b|----------------------------|
g|----------------------------|
d|-12-14-16-16-14-12-11-9-7---|
a|----------------------------|
e|----------------------------|

Im not 100% sure, esp. the chorus, but it sounds good! If someone can figure out that part after the chorus but before the outro please let me know! Im dying to play it but I cant seem to get it! And its probably easy lol.

For the first part of the intro you can play: xxxx32 xxxx53 xxxx75 xxxx77 (or xxxx8x) xxxx53 xxxx32 thats how I did it originally, but it doesn't sound really that great.

Also...you can play the Verses doubled up... example: instead of just playing 7 on D you can play 7 on D and G like this:

g|-7-|
d|-7-|

You can do that for the whole verse (xx99xx, xx(11)(11)xx) instead of just the xx9xxx xxx(11)x if it makes it sound better (also can be used in the Intro and Outro).
In the Verses I put (16) that means play it quick its like an echo. Well enjoy the tab! Any questions email me! I hope its good enough I spent about 3 or 4 hours working on this. Thanks!!
-stand_on_the_edge
Comments