Lifehouse - You Belong To Me Chords & Tabs

 

You Belong To Me Chords & Tabs

Lifehouse Chords & Tabs

Version: 2 Type: Tab 0 ratings
1 star 2 stars 3 stars 4 stars 5 stars
comments

You Belong To Me Tab

   
-------------------------------------------------------------------------------
			     You Belong to Me - Lifehouse/Jason Wade
-------------------------------------------------------------------------------
Tabbed by:Sam Carr
Email:Dickiesandlotops@myfam.com

Tuning:standard

Intro/Verse/Solo:
[ Tab from: http://www.guitartabs.cc/tabs/l/lifehouse/you_belong_to_me_tab_ver_2.html ]
				   Bbm			      F#
e|----------------------------------6-------------------------2--------------|
B|----------------------------------6-------------------------2--------------|
G|----------------------------------6------8-8--8-8--8--------3--------------|
D|--------11----11-11----11-------8--------9-11-9-11-9-8----4----------------|
A|-----11-11h13-11-11h13-11-9-8--8-------9-----------------4-----------------|
E|--14--------------------------6------7------------------2------------------|
	
        	     First verse ends on C# |	Second verse ends with F#
       B    Bm		   Eb	   Ab    C# |	F#
e|-----7----7----------------------4-----4--|---6----------------------------|
B|-----7----7----------------------4-----6--|---7----------------------------|
G|-----8----7-----3---3---6/8------5-----6--|--6-----------------------------|
D|-----9----9-----4---4---6/8------6---6----|-8------------------------------|
A|---9----9-------4---4---4/6----6----4-----|9-------------------------------|
E|--7----7------2---1-----------4-----------|--------------------------------|

Chorus Thing:
   "I'll be so alone..."
   F#   E/F#	    B    Ab  F#/Ab      C#
e|------------------7-------------------4--4-4-4-----------------------------|
B|------------------7-------------------6--6/7\6-----------------------------|
G|-11---11----------8----13---13------6----6-6-6-----------------------------|
D|-11---11--------9------13---13-----6-----6-6-6-----------------------------|
A|--9----7-------9-------11----9----4------4-4-4-----------------------------|
E|--------------7------------------------------------------------------------|

Verse3
Chorus Thing
Verse 3 again


| /  slide up
| \  slide down
| h  hammer-on
| p  pull-off
| ~  vibrato
| +  harmonic
| x  Mute note
===============================================================================
Enjoy! Great song!-Sam~
Comments