Lifehouse - Well Never Know Chords & Tabs

 

Well Never Know Chords & Tabs

Lifehouse Chords & Tabs

Version: 1 Type: Bass Tab

Well Never Know Bass Tab

We’ll never know - Lifehouse

Tabbed By: Drew Fish
E-mail: microfish89@yahoo.com

Tuning: Standard

Intro (in at 0:12)
G|----------------------------------|
D|-------------------------------1--|
A|--1--1-1----------1--1-1----------|
E|----------4--4-4----------4--3----|

Verse 1
G|------------------------------------------------------------------|
D|-----------------------------5-1----------------------------------|
A|--1--1-1----------1--1-1----------1--1-1-----------------------3--|
E|----------4--4-4----------4---------------4--4-4--1--1-1--4--4----|
[ Tab from: http://www.guitartabs.cc/tabs/l/lifehouse/well_never_know_btab.html ]
Chorus
G|--------------------------------------------------------|
D|---------------------------------------------6-------6--|
A|--6-----------3---------3-5-6-----------3--6----3--6----|
E|-----6-4-4-4-----6-4-4---------6-4-4-4------------------|

Verse 2
G|------------------------------------------------------------------|
D|-----------------------------5-1----------------------------------|
A|--1--1-1----------1--1-1----------1--1-1-----------------------3--|
E|----------4--4-4----------4---------------4--4-4--1--1-1--4--4----|

Bridge
G|-----------------------------------|
D|----------6-6-6-6---------6-6-6-6--|
A|--2-2-2-2---------2-2-2-2----------|
E|-----------------------------------|


Order:
Intro @ 0:12
Verse 1
Chorus
Verse 2
Chorus
Bridge
Chorus x3

Standard 4 string tuning.