Lifehouse - Wash Chords & Tabs

 

Wash Chords & Tabs

Lifehouse Chords & Tabs

Version: 2 Type: Tab 0 ratings
1 star 2 stars 3 stars 4 stars 5 stars
comments

Wash Tab

   
***********************************************************************
This file is the author's own work and represents their interpretation of the song.
You may only use this file for private study, scholarship, or research.
***********************************************************************
Maybe i can't please everybody but i did my best to do this. Hope you like it guys! :>
Song:   Wash
Artist: Lifehouse
Album:  Stanley Climbfall

Tuning: down 1/2 step (Eb Ab Db Gb Bb Eb)
Capo:   none

Transcribed by: Laurence B. Hiponia  
Contact me at +639203900326 or email me at inclyned_wade19@yahoo.com tnx!!!



Note : the guitar is tuned down a half-step
S = slide
H = hammer
X = muted or dead string

Chords used:
Guitar 1
     D    G    Em    Am    C
e |--2----3-----x-----0----0-------------------
B |--3----1-----0-----1----1-------------------
G |--2----2-----0-----2----0-------------------
D |--0----2-----2-----2----2-------------------
A |-------2-----2-----0----3-------------------
E |-------0-----0------------------------------
Guitar 2
     D    G    Em    Am    C
e |--------------------------------------------
B |--------------------------------------------
G |--7----7-----9-----9----5-------------------
D |--7----5-----9-----7----5-------------------
A |--5----5-----7-----7----3-------------------
E |--------------------------------------------

This is the riff in the stanza..
Guitar 2
Rhythm fig.1(repeat as needed)
e|--------------------------------------------------
B|--------------------------------------------------
G|--9s11-11-11—-9s11-11-11—---11s13-13-13—11s13s16--
D|--xsx--x--x---xsx--x--x------xsxx-xx-xx—-xsxxsxx--
A|--7s9--9--9---7s9--9--9------9s11-11-11—-9s11s14--
E|--------------------------------------------------




e|--------------------------------------------------
B|--------------------------------------------------
G|--9s11-11-11—-9s11-11-9s7s6—6s4s6-6-6-6-----------
D|--xsx--x--x---xsx--x--xsxsx-xsxsx-x-x-x-----------
A|--7s9--9--9---7s9--9—-7s5s4-4s2s4-4-4-4-----------
E|--------------------------------------------------

Note: (there's this some kind of distortion with phaser effect throughout the song)

Intro: D-D-D-G(some kind of phaser effect)3x
(Then enters rhythm fig.1)3x
[ Tab from: http://www.guitartabs.cc/tabs/l/lifehouse/wash_tab_ver_2.html ]
stanza 1: rhythm fig 1 continues...
  D 
never meant to waste your time
  D
never meant to fall out of line
  D                              G
I always tried to get closer to you
 D
now it seems with every step
  D
feels like I'm losin' my breath
D                            G  
I don't know what else I can do
Refrain: (both guitars)

Em
but you wash over me
 G                     D
you wash over me like rain
     Em
and you wash over me
 G                        rhythm fig.1
you wash over me like sunshine

(same as stanza 1)
I never had to choose
living a life with you
or choosing lies only half true
now I'd rather be
alone with you and me
than hiding behind these walls

Refrain:(both guitars)
      Em    
when you wash over me
 G                     D
you wash over me like rain
     Em             
and you wash over me
 G                       D
you wash over me like sunshine
 Em
and you wash over me
 G                     D
you wash over me like rain
     Em                      
and you fall over me
 G                
you crawl over me 
      *enters distortion
      D-Am-C
like sunshine
      D-Am-C
like sunshine
       D                      Am     
everything in the world was falling through
 C
all I knew was to look to you
    D-Am-C
my sunshine
 D                 Am
all my life never found my place
   C
until I felt the sunlight on my face
    D-Am-C
my sunshine

(same as top)stanza chords
never meant to waste your time
never meant to fall out of line
I always tried  to get closer to you
now it seems with every step
feels like I'm losing my breath
I don't know what else I can do

Refrain: ( both guitars)
     Em
but you wash over me
 G                     D
you wash over me like rain
 Em      
and you wash over me
 G                       D
you wash over me like sunshine
     Em  
and you wash over me
 G                     D
you wash over me like rain
     Em  
and you fall into me
 G
you crawl into me 
      *enters distortion
      D-Am-C
like sunshine
      D-Am-C
like sunshine
      D-Am-C
like sunshine
      D-Am-C
like sunshine

I guess that's the whole song. Hope you enjoyed it guys! :> 
If you have any comments, suggestions or violent reactions just text or call
+639203900326 or email me at inclyned_wade19@yahoo.com tnx!!!
Comments