Lifehouse - Unknown Chords & Tabs

 

Unknown Chords & Tabs

Lifehouse Chords & Tabs

Version: 2 Type: Tab 0 ratings
1 star 2 stars 3 stars 4 stars 5 stars
comments

Unknown Tab

   
##################################################################################
# This file is the author's own work and represents their interpretation of the  #
# song. You may only use this file for private study, scholarship, or research.  #
##################################################################################

hey...this is an awesome song!!!! its my first tab but it is almost
perfect, i promise. im also gonna dedicate this tab to my bud
scooter-T-mcdougle. i just want him to know that ive never had the
courage to tell him this(tho i think he already knows)but ive liked
him a lot since the fourth grade and i still do and i just want him
to know that from me. thanx.
~Basquetballgrl00


Lead Intro:
e|---------------------------------------------------------|
B|---------------------------------------------------------|
G|-777-9 10 9 7 5 4-4--------------------------------------|
D|--------------------3------------------------------------|
A|---------------------------------------------------------|
E|---------------------------------------------------------|

OR

e|---------------------------------------------------------|
B|---------------------------------------------------------|
G|-7777-9 10 9 7 5-4---------------------------------------|
D|-------------------3-------------------------------------|
A|---------------------------------------------------------|
E|---------------------------------------------------------|
[ Tab from: http://www.guitartabs.cc/tabs/l/lifehouse/unknown_tab_ver_2.html ]
in the background of the lead intro you hear this:
/: D - c / G :/
  1-2 3-4 1-2-3-4 

chords for the verse:
  Am  C   G
|-5---8---3-|
|-5---8---3-|
|-5---9---4-|
|-7---10--5-|
|-----------|
|-----------|

verse 1:
proggression--/: Am / C / Am / G :/


Chorus:
proggression--4x /: Em - C / G - D :/
    
                 / Am - C / D /
...(the Am, G, and the C in the chorus are the normal chords)...


Lead Intro:
e|---------------------------------------------------------|
B|---------------------------------------------------------|
G|-777-9 10 9 7 5 4-4--------------------------------------|
D|--------------------3------------------------------------|
A|---------------------------------------------------------|
E|---------------------------------------------------------|

OR

e|---------------------------------------------------------|
B|---------------------------------------------------------|
G|-7777-9 10 9 7 5-4---------------------------------------|
D|-------------------3-------------------------------------|
A|---------------------------------------------------------|
E|---------------------------------------------------------|

verse :
same proggression--/: Am / C / Am / G :/

Chorus:
same proggression--4x /: Em - C / G - D :/
    
                      / Am - C / D /

Bridge:
proggression--4x /: D - C / G :/


Chorus:
same proggression--4x /: Em - C / G - D :/
    
                      / Am - C / D /

well...thats it. i hope it sounds good. =)
Comments