Lifehouse - Trying Chords & Tabs

 

Trying Chords & Tabs

Lifehouse Chords & Tabs

Version: 3 Type: Tab 0 ratings
1 star 2 stars 3 stars 4 stars 5 stars
comments

Trying Tab

   
LIFEHOUSE
	my first tab was messed up, i had only half of the interlude. but this one is complete. Its? straight 
the book. I had to convert some of the parts because the different guitars had capos in different spots. The 
parts were ment for a 12 string.

"Trying"          CAPO ON THE 3RD FRET
          intro
[ Tab from: http://www.guitartabs.cc/tabs/l/lifehouse/trying_tab_ver_3.html ]
E------2----------2-|------2-----------2       CHORDS-------------------|            EADGBE
B----2-----2----2---|----2------2----2--              Asus2------x02200-|
G--4-----4---2------|-------------------              E----------022100-|
D-------------------|-6-------6---4-----              G----------320033-|
A-------------------|-------------------              F#7sus4----242422-|
E-------------------|-------------------              F#---------244322-|
                                                      C#m--------x46654-|
E-------5-----5-----|-----2-----------2-              F#m--------233222-|
B-----3-----3-----3-|---2----2-----2----              D----------xx0232-|
G-------------------|-------------------              A----------x022---|2x
D--5-----5----------|-4---------4-------              E/G#-------4221xx-|
A-------------------|-------------------              Bsus4/E----024400-|
E-------------------|-------------------              C----------x32010-|
                                                      B----------x244---|4x
E------5-----------5|------2----------2---------------------------------|
B----3-----3----3---|----2----2----2------------------------------------|
G-------------------|---------------------------------------------------|
D--5-----5---5------|-4-----4---4---------------------------------------|
A-------------------|---------------------------------------------------|
E-------------------|---------------------------------------------------|
     *intro*
Could you let down your hair
And be transparent for a while
Just a little while
To See if your human after all
        VERSE
Honesty is a hard attribute to find
When we all want to seem like we've got it all figured out
       VERSE
let me be the first to say that I don't have a clue
I don't have all the answers
Ain't gonna pretend like I do just
 *Asus2 E G F#7sus4*
Trying to find my way
*Asus2 E   G   F#*
Trying to find my way the best that I know how
         VERSE
Well I haven't memorized all the cute things to say
But I'm working on it
Maybe I'll master this art for today
         VERSE
if I qoute all the line off the top of my head
will you believe
that I fully understand all of these things Ive read
 *Asus2 E G F#7sus4*
Im just trying to find my way
*Asus2 E G F#7sus4*
Trying to find my way
*Asus2 E G F7*
Trying to find my way the best that I know how    *interlude*
*C#m F#m       D                   A        E/G#
Well I havent got it all figured out quite yet but
*C#m                        F#m
 even if it takes my whole life
       *D                  A   E/G#
To get to where I need to be
*Bsus4/E            F#m      D
And if I should fall to the bottom of the end
*E        D                E
I'll be one step back to you
*D  A      C       B
trying to find my way
*D   A    C      B
Trying to find my way
* Asus2  E  G  F#sus4
Oh, I'm trying to find my way
*Asus2 E  G F#
Trying to find my way
     **outro**
=================================================

    verse

E--------2---------2|------2---------2--|
B------2-----2---2--|----2---2-----2----|
G--2^4-----4---2----|-------------------|
D-------------------|--6-------4--------|
A-------------------|-------------------|
E-------------------|-------------------|


E-------5--------3--|------2-----------2-|
B-----3---3---------|----2---2------2----|
G-------------------|--------------------|
D--5---------5------|--4--------4--------|
A-------------------|--------------------|
E-------------------|--------------------|

E-------5----------5|-------2-----------|
B-----3-----3----3--|-----2----2--------|
G-------------------|-------------------|
D--5-----5----5-----|--4----------4-----|
A-------------------|-------------------|
E-------------------|-------------------|
      interlude
E--------------------------------------|
B--------------------------------------|
G--------------------------------------|
D----------2---4-----------------------|
A-2---6--------------4-----2-----------|
E---------------------------------6----|

E--------------------------------------|
B--------------------------------------|
G--------------------------------------|
D--0-----------0-----------------------|
A------2---4-------2---4---2---1-------|
E--------------------------------------|



  **outro**

E---------------------------------------|
B----------------0----------------------|
G---------------------------------------|
D-------------4-----------2-----------2-|
A----------2------0---------------------|
E-2-------------------2-------4---2-----|

E--------------------------------------|
B----------0---------------0-----------|
G--------------------------------------|
D----------------------2------2--------|
A------4-----------2--------------2----|
E--2-----------3-----------------------|

E--------------------------------------|
B--------------0-----------------------|
G--------------------------------------|
D----------2-------2---------------2---|
A------4---------------2-------2-------|
E--2-----------------------3-----------|

E--------------------------------------x-|
B--0----------------------0------------0-|
G--------------------------------------x-|
D-----2---------------2------2---------4-|
A---------2-------4--------------2-----2-|
E-------------2------------------------2-|
    Confused,Comments... hurlubus@yahoo.com
Comments