Lifehouse - Trying Chords & Tabs

 

Trying Chords & Tabs

Lifehouse Chords & Tabs

Version: 2 Type: Tab 0 ratings
1 star 2 stars 3 stars 4 stars 5 stars
comments

Trying Tab

##################################################################################
# This file is the author's own work and represents their interpretation of the  #
# song. You may only use this file for private study, scholarship, or research.  #
##################################################################################

LIFEHOUSE       
my first tab was messed up, i had only half of the interlude. but this one is complete. Its’ straight from the book. I had to convert some of the parts because the different guitars had capos in different spots. The picking parts were ment for a 12 string.
 
"Trying"          CAPO ON THE 3RD FRET
          intro                      
    
E------2----------2-|------2-----------2       CHORDS            EADGBE 
B----2-----2----2---|----2------2----2--              Asus2------x02200 
G--4-----4---2------|-------------------              E----------022100                     
D-------------------|-6-------6---4-----              G----------320033
A-------------------|-------------------              F#7sus4----242422
E-------------------|-------------------              F#---------244322
                                                      C#m--------x46654
E-------5-----5-----|-----2-----------2-              F#m--------233222
B-----3-----3-----3-|---2----2-----2----              D----------xx0232
G-------------------|-------------------              A----------x0222x
D--5-----5----------|-4---------4-------              E/G#-------4221xx
A-------------------|-------------------              Bsus4/E----024400
E-------------------|-------------------              C----------x32010
                                                      B----------x2444x
E------5-----------5|------2----------2-
B----3-----3----3---|----2----2----2----
G-------------------|-------------------
D--5-----5---5------|-4-----4---4-------
A-------------------|-------------------
E-------------------|-------------------
     *intro*

[ Tab from: http://www.guitartabs.cc/tabs/l/lifehouse/trying_tab_ver_2.html ]
 verse
            
E--------2---------2|------2---------2--
B------2-----2---2--|----2---2-----2----
G--2^4-----4---2----|-------------------              
D-------------------|--6-------4-------- 
A-------------------|-------------------
E-------------------|-------------------
            
            
E-------5--------3--|------2-----------2
B-----3---3---------|----2---2------2---
G-------------------|-------------------              
D--5---------5------|--4--------4------- 
A-------------------|-------------------
E-------------------|-------------------
            
E-------5----------5|-------2-----------
B-----3-----3----3--|-----2----2--------
G-------------------|-------------------              
D--5-----5----5-----|--4----------4----- 
A-------------------|-------------------
E-------------------|-------------------
      interlude
E--------------------------------------
B--------------------------------------
G--------------------------------------              
D----------2---4----------------------- 
A-2---6--------------4-----2-----------
E---------------------------------6----
           
E--------------------------------------
B--------------------------------------
G--------------------------------------              
D--0-----------0----------------------- 
A------2---4-------2---4---2---1-------
E--------------------------------------
                


**outro**
            
E--------------------------------------
B----------------0---------------------
G--------------------------------------              
D-------------4-----------2-----------2 
A----------2------0--------------------
E-2-------------------2-------4---2----
            
E--------------------------------------
B----------0---------------0-----------
G--------------------------------------              
D----------------------2------2-------- 
A------4-----------2--------------2----
E--2-----------3-----------------------
            
E--------------------------------------
B--------------0-----------------------
G--------------------------------------              
D----------2-------2---------------2--- 
A------4---------------2-------2-------
E--2-----------------------3-----------
            
E--------------------------------------x
B--0----------------------0------------0
G--------------------------------------x              
D-----2---------------2------2---------4 
A---------2-------4--------------2-----2
E-------------2------------------------2
    Confused,Comments... hurlubus@yahoo.com
Comments