Lifehouse - Take Me Away Chords & Tabs

 

Take Me Away Chords & Tabs

Lifehouse Chords & Tabs

Version: 3 Type: Tab 0 ratings
1 star 2 stars 3 stars 4 stars 5 stars
comments

Take Me Away Tab

   
-------------------------------------------------------------------------------
Lifehouse
Take Me Away(Electric Guitar) v1.0
-------------------------------------------------------------------------------
Tabbed by: RaZoRb0iz
Email: razorb0iz@gmail.com

Tuning: 1 step down. ( D  G  C  F  A  D)

This is their rock version, and these sound the most accurate to my ears. Well, of
course it’d be even more accurate if you buy their official scores but hell, not
everyone can afford ‘em.This tab is only for the MAIN ELECTRIC GUITAR.
By right, the verse chords are also played but I don’t know whether they’re from
the electric guitar or whatever. Anyway, just get a acoustic guitar to play it
loudly, and the electric guitar softly during the Verses. It still sounds fine to me.

***NOTE*** The chords I give aren’t to be followed exactly...Use the fingering as
reference,and get the rhythm from listening to the song while playing.

Comments? Anyone? =D

Version 1—-First version


Intro
D|---0~---2~--4~---7~--12~--11~--4~-----5~--4~--0~------------------------|
A|------------------------------------------------------------------------|
F|------------------------------------------------------------------------|
C|------------------------------------------------------------------------|
G|------------------------------------------------------------------------|
D|------------------------------------------------------------------------|

Intro (Loud as possible =))
D|--0--0-0----0-0-0----0-0-0---0-0-0--------------------------------------|
A|--0--0-0----0-0-0----0-0-0---0-0-0--------------------------------------|
F|--1--1-1----2-2-2----6-6-6---2-2-2--------------------------------------|
C|--2--2-2----2-2-2----6-6-6---2-2-2--------------------------------------|
G|--2--2-2----0-0-0----4-4-4---0-0-0--------------------------------------|
D|--0--0-0----0-0-0----x-x-x---0-0-0--------------------------------------|
						2x

Verse 1 (SOFTLY)
D|--0--0-0----0-0-0----0-0-0---0-0-0--------------------------------------|
A|--0--0-0----0-0-0----0-0-0---0-0-0--------------------------------------|
F|--1--1-1----2-2-2----6-6-6---2-2-2--------------------------------------|
C|--2--2-2----2-2-2----6-6-6---2-2-2--------------------------------------|
G|--2--2-2----0-0-0----4-4-4---0-0-0--------------------------------------|
D|--0--0-0----0-0-0----x-x-x---0-0-0--------------------------------------|
						4x
Pre-Chorus (Loud)
D|-0-0-0---0-0-0---0-0-0--------------------------------------------------|
A|-0-0-0---0-0-0---0-0-0--------------------------------------------------|
F|-4-4-4---6-6-6---2-2-2--------------------------------------------------|
C|-4-4-4---6-6-6---2-2-2--------------------------------------------------|
G|-2-2-2---4-4-4---0-0-0--------------------------------------------------|
D|-2-2-2---0-0-0---0-0-0--------------------------------------------------|






Chorus (Loud)
D|--0-0-0--0-0-2-2-0--0-0-4-4-0-------------------------------------------|
A|--0-0-0--0-0-2-2-0--0-0-4-4-0-------------------------------------------|
F|--1-1-1--4-4-4-4-4--6-6-6-6-6-------222---------------------------------|
C|--2-2-2--4-4-4-4-4--6-6-6-6-6--444--222---------------------------------|
G|--2-2-2--2-2-2-2-2--4-4-4-4-4--444--000---------------------------------|
D|--0-0-0--2-2-2-2-2--4-4-4-4-4--222--------------------------------------|
						2x
[ Tab from: http://www.guitartabs.cc/tabs/l/lifehouse/take_me_away_tab_ver_3.html ]
Verse 2 (SOFTLY)
D|--0--0-0----0-0-0----0-0-0---0-0-0--------------------------------------|
A|--0--0-0----0-0-0----0-0-0---0-0-0--------------------------------------|
F|--1--1-1----2-2-2----6-6-6---2-2-2--------------------------------------|
C|--2--2-2----2-2-2----6-6-6---2-2-2--------------------------------------|
G|--2--2-2----0-0-0----4-4-4---0-0-0--------------------------------------|
D|--0--0-0----0-0-0----x-x-x---0-0-0--------------------------------------|
						2x

Pre-Chorus (Loud)
D|-0-0-0---0-0-0---0-0-0--------------------------------------------------|
A|-0-0-0---0-0-0---0-0-0--------------------------------------------------|
F|-4-4-4---6-6-6---2-2-2--------------------------------------------------|
C|-4-4-4---6-6-6---2-2-2--------------------------------------------------|
G|-2-2-2---4-4-4---0-0-0--------------------------------------------------|
D|-2-2-2---0-0-0---0-0-0--------------------------------------------------|

Chorus (Loud)
D|--0-0-0--0-0-2-2-0--0-0-4-4-0-------------------------------------------|
A|--0-0-0--0-0-2-2-0--0-0-4-4-0-------------------------------------------|
F|--1-1-1--4-4-4-4-4--6-6-6-6-6-------222---------------------------------|
C|--2-2-2--4-4-4-4-4--6-6-6-6-6--444--222---------------------------------|
G|--2-2-2--2-2-2-2-2--4-4-4-4-4--444--000---------------------------------|
D|--0-0-0--2-2-2-2-2--4-4-4-4-4--222--------------------------------------|
						2x

Bridge
D|------------------------------------------------------------------------|
A|------------------------------------------------------------------------|
F|------------------------------------------------------------------------|
C|-6-6-6-\-7-7-\-9-\-11-/-9-/-6-6-6/444/222\------------------------------|
G|-6-6-6-\-7-7-\-9-\-11-/-9-/-6-6-6/444/222\------------------------------|
D|-4-4-4-\-5-5-\-7-\-9--/-7-/-4-4-4/222/000\------------------------------|

D|------------------------------------------------------------------------|
A|------------------------------------------------------------------------|
F|------------------------------------------------------------------------|
C|-6-6-6-\-7-7-\-9-\-11-/-9-/-6-6-6-/-9-9-9-------------------------------|
G|-6-6-6-\-7-7-\-9-\-11-/-9-/-6-6-6-/-9-9-9-------------------------------|
D|-4-4-4-\-5-5-\-7-\-9--/-7-/-4-4-4-/-7-7-7-------------------------------|

Bridge ending
D|--0-0-0--0-0-2-2-0--0-0-4-4-0-------------------------------------------|
A|--0-0-0--0-0-2-2-0--0-0-4-4-0-------------------------------------------|
F|--1-1-1--4-4-4-4-4--6-6-6-6-6-------222---------------------------------|
C|--2-2-2--4-4-4-4-4--6-6-6-6-6--444--222---------------------------------|
G|--2-2-2--2-2-2-2-2--4-4-4-4-4--444--000---------------------------------|
D|--0-0-0--2-2-2-2-2--4-4-4-4-4--222--------------------------------------|

Verse 3 (MAIN ELECTRIC GUITAR DOES NOT PLAY)




Pre-Chorus (Soft on first chord,gradually get louder,loud at last chord)
D|-0-0-0---0-0-0---0-0-0--------------------------------------------------|
A|-0-0-0---0-0-0---0-0-0--------------------------------------------------|
F|-4-4-4---6-6-6---2-2-2--------------------------------------------------|
C|-4-4-4---6-6-6---2-2-2--------------------------------------------------|
G|-2-2-2---4-4-4---0-0-0--------------------------------------------------|
D|-2-2-2---0-0-0---0-0-0--------------------------------------------------|

Chorus (Loud)
D|--0-0-0--0-0-2-2-0--0-0-4-4-0-------------------------------------------|
A|--0-0-0--0-0-2-2-0--0-0-4-4-0-------------------------------------------|
F|--1-1-1--4-4-4-4-4--6-6-6-6-6-------222---------------------------------|
C|--2-2-2--4-4-4-4-4--6-6-6-6-6--444--222---------------------------------|
G|--2-2-2--2-2-2-2-2--4-4-4-4-4--444--000---------------------------------|
D|--0-0-0--2-2-2-2-2--4-4-4-4-4--222--------------------------------------|
						4x

D|--0--|
A|--0--|
F|--1--|
C|--2--|
G|--2--|
D|--0--|


| /  slide up
| \  slide down
| h  hammer-on
| p  pull-off
| ~  vibrato
| +  harmonic
| x  Mute note
===============================================================================
Comments