Lifehouse - Take Me Away Chords & Tabs

 

Take Me Away Chords & Tabs

Lifehouse Chords & Tabs

Version: 1 Type: Tab 0 ratings
1 star 2 stars 3 stars 4 stars 5 stars
comments

Take Me Away Tab

   
Artist: Lifehouse
Song:   Take Me Away
Album:  Stanley Climbfall
Tabber: Sheriffvalenti@hotmail.com


********************************************
This is a brand new song off of Lifehouse's new album, 'Stanley Climbfall'. This
is one of my favourite songs ever! The version I have tabbed is based on a live
performance you can download off of audiogalaxy, wnmx etc..... entitled 'Take Me
Away (01.09.29)'

Enjoy.....................

********************************************

Chords used:

     E Asus Bsus C#sus F#sus Absus  Asus (II)    Bsus(II)
Eb---0---0---0---0------0----0------0-------------0
Bb---0---0---0---0------0----0------0-------------0
Gb---9---2---4---6------x----x------x-------------X
Db---9---2---4---6------4----6------7-------------9
Ab---7---0---2---4------4----6------7-------------9
Eb---x---x---x---x------2----4------5-------------7



Guitar 1

Eb----2--0-------------------------- Repeat
Bb-0--------------------------------
Gb----------------------------------
Db----------------------------------
Ab----------------------------------
Eb----------------------------------


Guitar 2 (time not indicated)

Eb----------------------------------
Bb-12-16-7-5-9-10-12-10-9-7-5-7s9-0-
Gb----------------------------------
Db----------------------------------
Ab----------------------------------
Eb----------------------------------


***************************************
Intro:

Guitar 1:

E, Asus, C#sus, Asus

****************************************
Verse pattern:

     E
This time

Asus          C#sus
All I want is you
[ Tab from: http://www.guitartabs.cc/tabs/l/lifehouse/take_me_away_tab.html ]
Asus            E
There is no one else

etc.....

*********************************************************

     (guitar 2 enters below) 
This time...................you brought me with your eyes

Guitar 2 (time not indicated)

Eb----------------------------------
Bb-9-10-12-14-17-19-21--------------
Gb----------------------------------
Db----------------------------------
Ab----------------------------------
Eb----------------------------------

*********************************************
Pre chorus - Guitar 2 (I've seen it all....):

Eb------------------------------------------
Bb-12-12-10-10-9-9--------------------------
Gb-----------------11-11--9-9-8-8-----------
Db--------------------------------11-11-9-9-
Ab------------------------------------------
Eb------------------------------------------

     B#sus               
I've seen it all, it was never enough

         C#sus             Asus
It keeps leaving me needing you

*********************************************

Chorus:

        E   Bsus
Take me away

        C#sus
Take me away

F#sus       Asus         Esus     
I've got nothing left to say

Bsus         C#sus   F#sus  Asus
Just take me away
********************************************

Repeat as necessary 
********************************************

Absus              Asus(II)
Don't give up on me yet
          Absus    F#sus 
Don't forget who I am
Absus              Asus(II)
I know I'm not there yet
        Absus          Bsus(II) 
But til then, you stay around
*******************************************

Repeat pre-chorus and chorus 'til end
Comments