Lifehouse - Spin Chords & Tabs

 

Spin Chords & Tabs

Lifehouse Chords & Tabs

Version: 5 Type: Tab 0 ratings
1 star 2 stars 3 stars 4 stars 5 stars
comments

Spin Tab

   
ROCK ON!!!!!!!!!!!!!!!!


Song:   Spin
Artist: Lifehouse
Album:  Stanley Climbfall
tabbd by pau

Tuning: down 1/2 step (Eb Ab Db Gb Bb Eb)
Capo:   none

Transcribed by: Adam McGuffie and Jon Kishkunas

Alright, well this song is done with 4 piece, so there's a rhythm guitar
and a lead guitar(and bass and drums,but we obviously didn't tab those :)


Intro and verse's for rythem guitar:

Note: There will be more strums than this...this is only for you to get an idea
of what you'll be playing. Also, do not play the notes that are in parenthases,
you will have your fingers there. It's really just to make you playing look pretty though:)

Note two: For the Intro, You'll only play the first part once. Don't play the
part that's after the line!

                       
       hit only once!--v   v--hold this chord for 2 downstrokes only!
eb|---------------------------------|------------(3)----------------------------
Bb|----------------------s----------|t-----------(3)----------------------------
Gb|--------------------7-l-0--------|h----2------(0)----------------------------
Db|--12----11----9-8h9-x-i-5--2---X2|e----2-------0-----------------------------
Ab|--12----12----9-9-9-9-d-7--2-----|n----x-------2-----------------------------
Eb|--10----10----7-7-7-0-e-0--0-----|-----2-------3-----------------------------

Lead Guitar for Verses:
Note: Just mess around with these two combinations. On the second verse i don't
have a clue what the lead guitar is doing!!!
  
eb|-(10)------10---(10)--------10-----------------------------------
Bb|-(7)----7-------(7)-----7----------------------------------------
Gb|-(9)--9--9------(7)---7---7--------------------------------------
Db|-(7)------------(7)----------------------------------------------
Ab|-----------------------------------------------------------------
Eb|-----------------------------------------------------------------




Rythem Guitar Chorus:
  
Note: As always, there will be tons more strums, these are just the positions :)

                           No You and I wouldn't change a thing..(2nd time he sings it)  
eb|-5----2----0--0--3|------------------------------------(3)---------
Bb|-5----3----0--0--3|----t-------------------------------(3)---------
Gb|-7----4----0--2--0|-x2-h--------------2----------------(0)---------
Db|-7----4----2--2--0|----e-2------------2-----------------0----------
Ab|-5----2----2--x--2|----n-2------------x-----------------2----------
Eb|-----------0--2--3|------0------------2-----------------3----------

Lead Guitar for Chorus:

note: Play rythem chords till he sings "I've got nothing else to lose.." and you
start One on the "I've" and play till the end of the chorus. When he
sings "wouldn't change a thing" for the last time you'll play Two, starting when
he sings "Thing".
  
       
      
One:
Eb|1010101010101010|
Bb|7 7-8-7-8-7-7-7-|
Gb|9-9-9-9-9-9-9-9-|  x2 
Db|7-7-7-7-7-7-7-7-|
Ab|----------------|
Eb|----------------|
   1 + 2 + 3 + 4 +  

Two:

note: there will be more strums than this :)

Note: the very last time the chorus is sung, you do this every time Jason
sings "You and I wouldn't change a thing"(well, You do it when he sings "thing"
as always), EXCEPT for the last time! Then you are switching to the ending chords.
eb|--x--x--x--x------------------------------------------------------
Bb|--12-10-8--7/0-m--------------------------------------------------
Gb|--x--x--x--x---u--------------------------------------------------
Db|--9--7--5--4/0-t--------------------------------------------------
Ab|---------------e--------------------------------------------------
Eb|------------------------------------------------------------------


Rythem Guitar for Bridge:

Note: you geussed it, more strums than this :D
     Spining.....turning.....watching...burning...
eb|--2-----------0-----------0----------0----------------------------
Bb|--3-----------3-----------5----------3----------------------------
Gb|--2-----------5-----------7----------5----------X4----------------
Db|--0-----------0-----------0----------0----------------------------
Ab|------------------------------------------------------------------
Eb|------------------------------------------------------------------

Lead Guitar for Bridge:  

Note: After you play this twice, do the 12/0 slide.

Note two: Twice he messes with the order right at the end if i'm not mistaken.
Listin for the change(he uses one of the octaves written though). 

    Spining...turning...Watching....burning                                               
eb|------------------------------------------------------------------
Bb|-7---------0--5------7----10-----11----8--------------------------
Gb|-9b11-2----4--7b-----9b11-12b14--13b15-10b12------X4----------------
Db|------------------------------------------------------------------
Ab|------------------------------------------------------------------
Eb|---------------------------------------------------12/0-----------
[ Tab from: http://www.guitartabs.cc/tabs/l/lifehouse/spin_tab_ver_5.html ]
 Pre Chorus:
   You and I wouldn't change a thing...X2
eb|---------------------------(3)---------------------
Bb|---------------------------(3)---------------------
Gb|----------2----------------(0)---------------------
Db|-2--------2-----------------0----------------------
Ab|-2--------x-----------------2----------------------
Eb|-0--------2-----------------3----------------------


Jam part:
 
  Note: The * means, don't  acctually do a hammer on and pull off. You are doing
the exact same thing that the lead guitar does in the chorus(like changing that
one note wise) just using this chord. Also, it'll sound like there's supposed to
be a chord change, but there's not! Remember this is supposed to be played with a
four peice, it's just the bass changing notes.

Rythem Guitar:
eb|-5---------------------------------------------
Bb|-7h9p7*----------------------------------------
Gb|-7---------------------------------------------
Db|-x---------------------------------------------
Ab|-5---------------------------------------------
Eb|-----------------------------------------------

Lead Guitar:

Eb|1010101010101010|
Bb|7 7-8-7-8-7-7-7-|
Gb|9-9-9-9-9-9-9-9-|  x8
Db|7-7-7-7-7-7-7-7-|
Ab|----------------|
Eb|----------------|
   1 + 2 + 3 + 4 +     

Ending chords:

Note: i'm talking about the chords right before the outro starts.

eb|--3---------3-----------------------------------
Bb|--3---------3-----------------------------------
Gb|--4---------4-----------------------------------
Db|--5----2----5-----------------------------------
Ab|--5----2----5-----------------------------------
Eb|--3----0----3-----------------------------------    

Lead Guitar Outro(first part):  (starting at 3:53)

eb|---------|---------|-------------|---------|
Bb|---------|---------|-------------|---------|
Gb|-----7---|-----9---|-------11----|-----9---|
Db|-7-7---7-|-8-8---8-|-10-10----10-|-8-8---8-|
Ab|---------|---------|-------------|---------|
Eb|---------|---------|-------------|---------|

eb|---------|---------|-------------|---------|
Bb|---------|---------|-------------|---------|
Gb|-----7---|-----9---|-------11----|-----9---|
Db|-7-7---7-|-8-8---8-|-10-10----10-|-8-8---8-|
Ab|---------|---------|-------------|---------|
Eb|---------|---------|-------------|---------|

  (starting at 4:08):
eb|----------|----------|-----------------|----------|
Bb|----------|----------|-----------------|----------|
Gb|--7-7--7-7|--9-9--9-9|---11--11--11--11|--9-9--9-9|
Ab|-7-7----7-|-8-8----8-|-10--10------10--|-8-8----8-|
Db|----------|----------|-----------------|----------|
Eb|----------|----------|-----------------|----------|

eb|----------|----------|-----------------|----------|
Bb|----------|----------|-----------------|----------|
Gb|--7-7--7-7|--9-9--9-9|---11--11--11--11|-9--------|
Db|-7-7----7-|-8-8----8-|-10--10------10--|-8--------|
Ab|----------|----------|-----------------|----------|
Eb|----------|----------|-----------------|----------|   

Rythem guitar outro(first part):

Note: Well , it's kinda different here. It's pretty much just one down-up stroke
with a delay after the down. You'll catch it :)
eb|-0-------0----0----0------------------------------
Bb|-3-------3----5----3------------------------------
Gb|-2-------5----7----5-------X4---------------------
Db|-0-------0----0----0------------------------------
Ab|--------------------------------------------------
Eb|--------------------------------------------------


Rythem Guitar Outro(second part):

 (starting at 4:22):
("x" means mute the string, "s" means slide)
eb|----------------|-----------------|    |---------------------
Bb|----------------|-----------------|   t|---------------------
Gb|-5/7-7-7-5\3-3-3|-5-5/7-7-5\3-3-3-|   h|-3-3-3---------------
Db|-x-x-x-x-x-x-x-x|-x-x-x-x-x-x-x-x-| X2e|-x-x-x---------------
Ab|-3/5-5-5-3\1-1-1|-3-3/5-5-3\1-1-1-|   n|-1-1-1---------------
Eb|----------------|-----------------|    |---------------------
 


eb|----------------|-----------------|    |---------------------
Bb|----------------|-----------------|   t|---------------------
Gb|-5/7-7-7-5\3-3-3|-5-5/7-7-5\3-3-3-|   h|-5-5--5-5------------
Db|-x-x-x-x-x-x-x-x|-x-x-x-x-x-x-x-x-| X2e|-x-x--x-x------------
Ab|-3/5-5-5-3\1-1-1|-3-3/5-5-3\1-1-1-|   n|-3-3--3-3------------
Eb|----------------|-----------------|    |---------------------



Lead Guitar outro(Second part):

eb|-------------------|-------------------|    |---------------------
Bb|-------------------|-------------------|   t|---------------------
Gb|-5/7-7-7-5\3-3-3/10|-5-5/7-7-5\3-3-3/7-|   h|-3-3-3---------------
Db|-x-x-x-x-x-x-x-x-x-|-x-x-x-x-x-x-x-x---|X2 e|-x-x-x---------------
Ab|-3/5-5-5-3\1-1-1/8-|-3-3/5-5-3\1-1-1/5-|   n|-1-1-1---------------
Eb|-------------------|-------------------|    |---------------------
  
eb|-------------------|-------------------|    |---------------------
Bb|-------------------|-------------------|   t|---------------------
Gb|-5/7-7-7-5\3-3-3/10|-5-5/7-7-5\3-3-3/7-|   h|-5-5--5-5------------
Db|-x-x-x-x-x-x-x-xx--|-x-x-x-x-x-x-x-x-x-| X2e|-x-x--x-x------------
Ab|-3/5-5-5-3\1-1-1/8-|-3-3/5-5-3\1-1-1/5-|   n|-3-3--3-3------------
Eb|-------------------|-------------------|    |---------------------
  


Listen for the timings in the last part, it's not too difficult.

Tab dictionary:

x: Mute
S: slide
H: Hammer on
P: Pull Off
/: slide up
\: slide down

Order of song:
  
  Intro
  Verse one
  Chorus
  Verse two
  Chorus
  Bridge
  Pre-Chorus
  Jam part
  Chorus
  Outro parts
Comments