Lifehouse - Somewhere In Between Chords & Tabs

 

Somewhere In Between Chords & Tabs

Lifehouse Chords & Tabs

Version: 2 Type: Tab 0 ratings
1 star 2 stars 3 stars 4 stars 5 stars
comments

Somewhere In Between Tab

   

Lifehouse - Somewhere In Between
Tabbed by : Matt Jansson (semisonic30@hotmail.com)
Normal tuning (E,A,D,G,B,E)

This song is great and itīs really fun to play. There are only two parts
to the song, which makes it very easy to play!

Part I

Intro & verse:
[ Tab from: http://www.guitartabs.cc/tabs/l/lifehouse/somewhere_in_between_tab_ver_2.html ]
E--0---0------0-----0--------0----0------0------0--
B--0---0--------0---0----------0--0--------0----0--
G--9---8----6-------4------9------8----6--------4--      X2
D--9---9----6-------4------9------9----6--------4--
A--7---7----4-------2------7------7----4--------2--
E-(0)-(0)----------(0)-----------(0)-----------(0)-

Part II

E--0--0000--0000---0--000---0--000--
B--0--0000--0000---0--000---0--000--
G--2--2222--2222---6--666---4--444--  X3
D--2--2222--2222---6--666---4--444--
A--0--0000--0000---4--444---2--222--
E--X--XXXX--XXXX--(0)(000)-(0)(000)-


There are some slight variations but just play around with these chords
and you will figure them out!

If you have any comments or questions, feel free to e-mail me at
(semisonic30@hotmail.com)

Comments