Lifehouse - Somewhere In Between Chords & Tabs

 

Lifehouse Chords & Tabs

Version: 1 Type: Tab 0 ratings
1 star 2 stars 3 stars 4 stars 5 stars
comments

Somewhere In Between Tab

   
##################################################################################
# This file is the author's own work and represents their interpretation of the  #
# song. You may only use this file for private study, scholarship, or research.  #
##################################################################################

Tabbed by Mike Greenwaldt, got any comments or questions?
Send them to cybershadow76@hotmail.com

Normal tuning (E,A,D,G,B,E)

This is a very cool song, and it is really easy to play and learn.
Shouldn't take more than a few minutes to figure it out.

I have even taking the liberty of showing you the strumming pattern.

This tab is just about perfect.


Intro 

E-0---0------0-0--0------0-0--0------0-0--0-0------
B-0---0------0--0-0------0--0-0------0--0-0--0-----
G-9---8------6----4------9----8------6----4--------     
D-9---9------6----4------9----9------6----4--------
A-7---7------4----2------7----7------4----2--------
E-0---0------0----0------0----0------0----0--------


Verse 1

E-0---0------0-0--0------
B-0---0------0--0-0------
G-9---8------6----4------  4x   
D-9---9------6----4------
A-7---7------4----2------
E-0---0------0----0------


Chorus 1

      _________________________The strumming is up,up,down
      |   |               |
E-0--000-000---0-00---0--000-
B-0--000-000---0-00---0--000-
G-2--222-222---6-66---4--444-  3X
D-2--222-222---6-66---4--444-
A-0--000-000---4-44---2--222-
E-X--XXX-XXX---0-00---0--000-
                 ______________There is a little guitar fill right here. 
                |              The strumming is down,up,down, the chords before
E-0--000-000---000--000-000    and after here are the same as above. 
B-0--000-000---000--000-000
G-2--222-222---222--222-222
D-2--222-222---222--222-222
A-0--000-000---000--000-000
E-X--XXX-XXX---XXX--XXX-XXX


Verse 2

    ___________________________The strumming here is up,down
    |             |
    |      |------|------|-----The strumming here is up,up,down
E-0-00--0-000---0-00--0-000--
B-0-00--0-000---0-00--0-000--
G-9-99--8-888---6-66--4-444--  4x   
D-9-99--9-999---6-66--4-444--
A-7-77--7-777---4-44--2-222--
E-0-00--0-000---0-00--0-000--


Chorus 2
 

     ________________________The strumming is up,up,down
      |   |               |
E-0--000-000---0-00---0--000-
B-0--000-000---0-00---0--000-
G-2--222-222---6-66---4--444-  3X
D-2--222-222---6-66---4--444-
A-0--000-000---4-44---2--222-
E-X--XXX-XXX---0-00---0--000-


                _______________There is a little guitar fill right here. 
                |              The strumming is down,up,down, the chords before
E-0--000-000---000--000-000    and after here are the same as above. 
B-0--000-000---000--000-000
G-2--222-222---222--222-222
D-2--222-222---222--222-222
A-0--000-000---000--000-000
E-X--XXX-XXX---XXX--XXX-XXX


Verse 3

    ___________________________The strumming here is up,down
    |             |
    |      |------|------|-----The strumming here is up,up,down
E-0-00--0-000---0-00--0-000--
B-0-00--0-000---0-00--0-000--
G-9-99--8-888---6-66--4-444--  3x   
D-9-99--9-999---6-66--4-444--
A-7-77--7-777---4-44--2-222--
E-0-00--0-000---0-00--0-000-- 

    _______________________The strumming here is up,down
    |             |
    |      |------|--------The strumming here is up,up,down
E-0-00--0-000---0-00--0--
B-0-00--0-000---0-00--0--
G-9-99--8-888---6-66--4--  1x   
D-9-99--9-999---6-66--4--
A-7-77--7-777---4-44--2--
E-0-00--0-000---0-00--0-- 

[ Tab from: http://www.guitartabs.cc/tabs/l/lifehouse/somewhere_in_between_tab.html ]
Verse 4

E-0---0------0-0--0------
B-0---0------0--0-0------
G-9---8------6----4------  2x   
D-9---9------6----4------
A-7---7------4----2------
E-0---0------0----0------

             ______________There is some picking here instead of these chords,
             | |  |        but not quite sure what it is.  I just play it this
E-0---0------0-0--0------  way.
B-0---0------0--0-0------
G-9---8------6----4------  2x   
D-9---9------6----4------
A-7---7------4----2------
E-0---0------0----0------


Chorus 4 (just like chorus 1, 2 and 3, except played twice)



      _________________________The strumming is up,up,down
      |   |               |
E-0--000-000---0-00---0--000-
B-0--000-000---0-00---0--000-
G-2--222-222---6-66---4--444-  3X
D-2--222-222---6-66---4--444-
A-0--000-000---4-44---2--222-
E-X--XXX-XXX---0-00---0--000-

happening......yeah.
                _______________There is a little guitar fill right here. 
                |              The strumming is down,up,down, the chords before
E-0--000-000---000--000-000    and after here are the same as above. 
B-0--000-000---000--000-000
G-2--222-222---222--222-222
D-2--222-222---222--222-222
A-0--000-000---000--000-000
E-X--XXX-XXX---XXX--XXX-XXX

      _________________________The strumming is up,up,down
      |   |               |
E-0--000-000---0-00---0--000-
B-0--000-000---0-00---0--000-
G-2--222-222---6-66---4--444-  3X
D-2--222-222---6-66---4--444-
A-0--000-000---4-44---2--222-
E-X--XXX-XXX---0-00---0--000-


                 ______________There is a little guitar fill right here. 
                |              The strumming is down,up,down, the chords before
E-0--000-000---000--000-000    and after here are the same as above. 
B-0--000-000---000--000-000
G-2--222-222---222--222-222
D-2--222-222---222--222-222
A-0--000-000---000--000-000
E-X--XXX-XXX---XXX--XXX-XXX


Verse 5


    ___________________________The strumming here is up,down
    |             |
    |      |------|------|-----The strumming here is up,up,down
E-0-00--0-000---0-00--0-000--
B-0-00--0-000---0-00--0-000--
G-9-99--8-888---6-66--4-444--  3X   
D-9-99--9-999---6-66--4-444--
A-7-77--7-777---4-44--2-222--
E-0-00--0-000---0-00--0-000--

    _____________________________The strumming here is up,down
    |             |
    |      |------|--------|-----The strumming here is down,up,up,down
E-0-00--0-000---0-00--0---0000--
B-0-00--0-000---0-00--0---0000--
G-9-99--8-888---6-66--4---4444--  1X   
D-9-99--9-999---6-66--4---4444--
A-7-77--7-777---4-44--2---2222--
E-0-00--0-000---0-00--0---0000--


*********************************************************************************************************

*********************************************************************************************************


Sky Is Falling
By Lifehouse
Tabbed By Mike Sherwood
This song is tuned down from E to D  (DGCFAD)

Intro:I believe this would be a variation of an E  
The following is showing the string names relative to standard tuning,
for simplicity. Listen to the track for the strumming pattern. 
Thanks to those who previously posted the song.  The Notes were right,
however the tuning was incorrect.  
The cords may not be exact(i think in the bridge, but much 
closer than any I have seen posted.

E|--0-----------------------------------------|
A|---8h10---------5--------4----------3-------|
D|----------------4 h 6----4 h 6------4-------|
G|--------------------------------------------|
B|--------------------------------------------|
E|--------------------------------------------|
Comments