Lifehouse - Simon Chords & Tabs

 

Simon Chords & Tabs

Lifehouse Chords & Tabs

Version: 2 Type: Tab 1 rating
1 star 2 stars 3 stars 4 stars 5 stars
comments

Simon Tab

   
##################################################################################
# This file is the author's own work and represents their interpretation of the  #
# song. You may only use this file for private study, scholarship, or research.  #
##################################################################################

Artist: Lifehouse
Title: Simon
Album: No Name Face

Tuned down 1/2 step (low to high)
Eb-Ab-Db-Gb-Bb-Eb

Intro:
[ Tab from: http://www.guitartabs.cc/tabs/l/lifehouse/simon_tab_ver_2.html ]
Riff A    (with fingers)                    
|------------------|------------------|------------------|------------------
|--6--5--1---------|--1--3--3---------|--6--5--1---------|--1--3--1---------
|------------------|------------------|------------------|------------------
|------------------|------------------|------------------|------------------
|--5--3--0---------|--0--2--3---------|--5--3--0---------|--0--2--3---------
|------------------|------------------|------------------|------------------


Verse 1:


Riff B   (fingers)
|------------------|------------------|------------------|------------------
|--1--1--1---------|--1--1--1---------|--1--1--1---------|--1--1--1---------
|------------------|------------------|------------------|------------------
|------------------|------------------|------------------|------------------
|--------0---------|--------0---------|--------0---------|--0--2------------
|--1--3------------|--1--3------------|--1--3------------|--------1---------


Prechorus: (now use a pick)


Chords Used:
Cmaj7: x32000
F    : 133211
G    : 320033
Am7  : x02010
Cadd9: x32033
G/B  : x20033
Am   : x02210
Fsus2: x33011
C    : x32010
G 3rd: 355433
Am5th: 577555
C 8th: 8-10-10-9-8-8


Awesome song!
----------------------
Bob Muzzy
bobbo@bobboonline.com
BobboOnline.com
Comments