Lifehouse - Simon Chords & Tabs

 

Lifehouse Chords & Tabs

Version: 1 Type: Tab 0 ratings
1 star 2 stars 3 stars 4 stars 5 stars
comments

Simon Tab

ok guys joel here and here it is a CORRECT version of the 
intro and maybe some extra
stuff........ any questions or comments email lightforcejunky@yahoo.com

standard tuning (eadgbe)


[ Tab from: http://www.guitartabs.cc/tabs/l/lifehouse/simon_tab.html ]
intro
e----------------------
b---5-4----------------
g-------4-4-6-6/8--------
d----------------------
a----------------------
e----------------------

electric guitar part

e----------------------
b----------------------
g--7\9--------7--4-----
d--x\x--(X3)--x--x-----
a--5\7--------5--2-----
e----------------------



sorry guys thats all i know!!!! remember email for questions and comments
lightforcejunky@yahoo.com
Comments