Lifehouse - Sick Cycle Carousel Chords & Tabs

 

Sick Cycle Carousel Chords & Tabs

Lifehouse Chords & Tabs

Version: 9 Type: Tab 0 ratings
1 star 2 stars 3 stars 4 stars 5 stars
comments

Sick Cycle Carousel Tab

   
Sick Cycle Carousel-Lifehouse
No Name Face

Tune down a half step:
Eb Ab Db Gb Bb Eb

Intro:

Riff A

e-----------------------------------------------------------------
b-----------------------0---------------------------0h1p0---------
g---------------------0-----0-----------------------------0----0--
d-----3-2-2-0-0-----2---------3-----3-2-2-0-0-----2---------2----3
a---3-----------3-0---------------3-----------3-0-----------------
e-1-------3---------------------1-------3-------------------------

Verse 1: Riff x3

e-----------------------------------------------------------------
b-----------------------------------------------------------------
g-----------------------------------------------------------------
d-----3-------3---------------------------------------------------
a---3---3---3-----0h2--2------------------------------------------
e-1-------1------------0------------------------------------------

Pre Chorus:

Riff B: w/ slide

e-----------------------------------------------------------------
b-----------------------------------------------------------------
g-7/9---9---7/9----9--------7/9-9-12/14--------9------------------
d-----------------------------------------------------------------
a-----------------------------------------------------------------
e-----------------------------------------------------------------

Fig 1. x3

e-0----0--0-0--0--0--0--0-0-1----1--1-1--0--0---------------------
b-1----1--1-1--0--0--0--0-0-1----1--1-1--1--1--0--0-0-------------
g-2----2--2-2--0--0--0--0-0-2----2--2-2--0--0--0--0-0-------------
d-2----2--2-2--2--2--2--2-2-3----3--3-3--2--2--0--0-0-------------
a-0----0--0-0--2--2--2--2-2-3----3--3-3--3--3--2--2-2-------------
e--------------0--0--0--0-0-1----1--1-1---------------------------

Riff B. cont.

e-----------------------------------------------------------------
b-----------------------------------------------------------------
g-7/9---9---7/9----9--------16-------16--------14--------12-------
d-----------------------------------------------------------------
a-----------------------------------------------------------------
e-----------------------------------------------------------------

e-0----0--0-0--0--0--0--0-0-1----1--1-1--3----3----3---3-3--------
b-1----1--1-1--0--0--0--0-0-1----1--1-1--3----3----3---3-3--------
g-2----2--2-2--0--0--0--0-0-2----2--2-2--4----4----4---4-4--------
d-2----2--2-2--2--2--2--2-2-3----3--3-3--5----5----5---5-5--------
a-0----0--0-0--2--2--2--2-2-3----3--3-3--5----5----5---5-5--------
e--------------0--0--0--0-0-1----1--1-1--3----3----3---3-3--------

Chorus:

Riff C

e--------3---------------------------3--------0-------------------
b---1----------------1---------3----------------------------------
g------0---------0----------------0-------------------------------
d-----------------------------------------------------------------
a-3---------------------------------------------------------------
e----------------------------3------------------------------------

Fig 2.

e-3----3---3-3-3--3--3--3-3--3----3---3-3-3--3--3--3-3------------
b-3----3---3-3-3--3--3--3-3--3----3---3-3-3--3--3--3-3------------
g-5----5---5-5-5--5--5--5-5--4----4---4-4-4--4--4--4-4------------
d-5----5---5-5-5--5--5--5-5--5----5---5-5-5--5--5--5-5------------
a-3----3---3-3-3--3--3--3-3--5----5---5-5-5--5--5--5-5------------
e----------------------------3----3---3-3-3--3--3--3-3------------

Fig 2. cont
[ Tab from: http://www.guitartabs.cc/tabs/l/lifehouse/sick_cycle_carousel_tab_ver_9.html ]
e-5----5---5-5-5--5--5--5-5--5----5---5-5-5--5--5--5-5------------
b-6----6---6-6-6--6--6--6-6--5----5---5-5-5--5--5--5-5------------
g-7----7---7-7-7--7--7--7-7--5----5---5-5-5--5--5--5-5------------
d-7----7---7-7-7--7--7--7-7--7----7---7-7-7--7--7--7-7------------
a-5----5---5-5-5--5--5--5-5--7----7---7-7-7--7--7--7-7------------
e----------------------------5----5---5-5-5--5--5--5-5------------

Riff C cont.

e--------5---------------------------5----------------------------
b---3----------------3------------------------5-------------------
g------2---------2----------------2-------------------------------
d-0----------------------------2----------------------------------
a----------------------------0------------------------------------
e-----------------------------------------------------------------

Interlude:

Riff D

e-----------------------------------------------------------------
b-----------------------------------------------------------------
g-----------------------------------------------------------------
d-----------------------------------------------------------------
a-----------------------------------------------------------------
e-------13-13-12-12-10-10\8---12------/19-------15----------------

Fig 3. x2

e-1--1--1--1-1-3-3--3--3--3-3--5--5--5--5-5-5-5--5--5--5-5--------
b-1--1--1--1-1-3-3--3--3--3-3--5--5--5--5-5-5-5--5--5--5-5--------
g-2--2--2--2-2-4-4--4--4--4-4--5--5--5--5-5-5-5--5--5--5-5--------
d-3--3--3--3-3-5-5--5--5--5-5--7--7--7--7-7-7-7--7--7--7-7--------
a-3--3--3--3-3-5-5--5--5--5-5--7--7--7--7-7-7-7--7--7--7-7--------
e-1--1--1--1-1-3-3--3--3--3-3--5--5--5--5-5-5-5--5--5--5-5--------

Riff D cont.

e-----------------------------------------------------------------
b-----------------------------------------------------------------
g-----------------------------------------------------------------
d-----------------------------------------------------------------
a-----------------------------------------------------------------
e-------13-13-12-12-10-10\8--/12----------------------------------

Verse 2 Riff A, and Fig 3.

Bridge: w/ Fig 1.

e-----------------------------------------------------------------
b-----------------------------------------------------------------
g-----------------9---9---9---9--10--10--10--10---7---7---9---9---
d-7---7---7---7---9---9---9---9--10--10--10--10---x---x---x---x---
a-7---7---7---7---7---7---7---7---8---8---8---8---5---5---7---7---
e-5---5---5---5---------------------------------------------------

Outro Chorus: Fig 2.

e--------------------8-7----------------5---5-----5---------------
b--5---8----------5---------8---------5---5-------------8---5--5-5
g-----------------------------------------------------7---7-------
d-----------------------------------------------------------------
a-----------------------------------------------------------------
e-----------------------------------------------------------------

Outro: play Chorus:
my own mini-solo, which is the vocal line for the outro

...sick cycle carousel...

e-----------------------------------------------------------------
b----------------------------------------------------------5------
g------------------4-------------------------4----5----7----------
d----5----5-------------7----------5----5-------------------------
a-------------7------------7--------------------------------------
e-----------------------------------------------------------------

thatís all
this is a great song
tell me what you think!
Comments