Lifehouse - Sick Cycle Carousel Chords & Tabs

 

Sick Cycle Carousel Chords & Tabs

Lifehouse Chords & Tabs

Version: 8 Type: Tab 0 ratings
1 star 2 stars 3 stars 4 stars 5 stars
comments

Sick Cycle Carousel Tab

   
Song: Sick Cycle Carousel
Artist: Lifehouse
Album: No Name Face
Transcripter: x_myzery_x

Intro/Verse:
(Play Twice}

||-------------------------------------------------------------------------------------||
||----------------------------0----------------------------------0h1p0-----------------||
||*-------------------------0---0--------------------------------------0----0---------*||
||*--------3-2(2)-0-0-----2---------3-----------3-2(2)-0-0-----2---------2----3-------*||
||------3-------------3-0--------------------3-------------3-0-------------------------||
||---1---------3--------------------------1---------3----------------------------------||


End of verse:

End of verse:
							   E
||---------------------------------------------------------0------------||
||----------------------------0----------------------------0------------||
||--------------------------0---0--------------------------1------------||
||---------3-2(2)-0-0-----2---------3---------3---3---3----2------------||
||------3-------------3-0------------------3----3---3---3--2------------||
||---1---------3------------------------1------------------0------------||

Chorus 1:

||-----0-0---0-0---0-0--0-0---------0-0--0-0--0------------------------||
||-----3-5---3-5---5-5--5-5/8-10\5--3-5--3-5--5-/12--10----------------||
||*-----------------------------------------------------12------------*||
||*-------------------------------------------------------------------*||
||---------------------------------------------------------------------||
||---------------------------------------------------------------------||


CHORUS 2
(PLAY TWICE)
(listen to the cd to find the exact rythm!)

     C	     G       Dm      Am
||---3-------3-------5-------5-----------||
||---3-------3-------6-------5-----------||
||*--5-------4-------7-------5----------*||
||*--5-------5-------7-------7----------*||
||---5-------5-------5-------7-----------||
||---3-------3---------------5-----------||


OR

     C	     G       Dm      Am
||---8-------10------12------12-----------||
||---8-------12------13------12-----------||
||*--9-------12------14------12----------*||
||*--10------12------14------14----------*||
||---10------10------12------14-----------||
||---8-----------------------12-----------||


SOLO/RIFF:
(PLAY ONCE)
NOTE: I haven't written the exact amount of chords in every beat...you need to figure that out for yourself by listening to the cd...;-)

||--------------------------------------------------------------------------------------------||
||---x-x----------------------------12----8--8-8-8-8------x-x---------------------------------||
||---9/101010-9-9--7-7--5---7-9-----x-----x--x-x-x-x------9/101010-9-9--7-7--5---7-9----------||
||---x-x-x-x--x-x--x-x--x---x-x-----9-----5--5-5-5-5------x-x-x-x--x-x--x-x--x---x-x----------||
||---7/8-8-8--7-7--5-5--3---5/7---------------------------7/8-8-8--7-7--5-5--3---5/7----------||
||--------------------------------------------------------------------------------------------||


----------------------------------------------------------------------------------------------
Second vers
(PLAY ONCE)
||-------------------------------------------------------------------------------------||
||----------------------------0----------------------------------0h1p0-----------------||
||--------------------------0---0--------------------------------------0----0----------||
||---------3-2(2)-0-0-----2---------3-----------3-2(2)-0-0-----2---------2----3--------||
||------3-------------3-0--------------------3-------------3-0-------------------------||
||---1---------3--------------------------1---------3----------------------------------||

[ Tab from: http://www.guitartabs.cc/tabs/l/lifehouse/sick_cycle_carousel_tab_ver_8.html ]
End of verse:
							   E
||---------------------------------------------------------0------------||
||----------------------------0----------------------------0------------||
||--------------------------0---0--------------------------1------------||
||---------3-2(2)-0-0-----2---------3---------3---3---3----2------------||
||------3-------------3-0------------------3----3---3---3--2------------||
||---1---------3------------------------1------------------0------------||


CHORUS 1
(REPEAT TWO TIMES)
NOTE: I haven't written the exact amount of chords in every beat...you need to figure that out for yourself by listening to the cd...;-)

||-----0-0---0-0---0-0--0-0---------0-0--0-0--0------------------------||
||-----3-5---3-5---5-5--5-5/8-10\5--3-5--3-5--5-/12--10----------------||
||*-----------------------------------------------------12------------*||
||*-------------------------------------------------------------------*||
||---------------------------------------------------------------------||
||---------------------------------------------------------------------||


CHORUS 2
(PLAY TWICE)
(listen to the cd to find the exact rythm!)

			  1.--------|2.--------||
     C	     G       Dm   |   Am    |    F     ||
||---3-------3-------5----|---5-----|----1-----||
||---3-------3-------6----|---5-----|----1-----||
||*--5-------4-------7----|---5----*|----2-----||
||*--5-------5-------7----|---7----*|----3-----||
||---5-------5-------5----|---7-----|----3-----||
||---3-------3------------|---5-----|----1-----||


OR

			  1.--------|2.--------||
     C	     G       Dm   |   Am    |    F     ||
||---8-------10------12---|---12----|----1-----||
||---8-------10------13---|---12----|----1-----||
||*--9-------12------14---|---12---*|----2-----||
||*--10------12------14---|---14---*|----3-----||
||---10------12------12---|---14----|----3-----||
||---8-------10-----------|---12----|----1-----||


CHORUS 3

			  1.----------|2.--------|3.----------|4.------------||
     Am	     Em      F    |   C  C/B  |    G     |  C   C/B   |   F     E    ||
||---0-------0-------1----|---0--0----|----3-----|--0---0-----|---1-----0----||
||---1-------0-------1----|---1--1----|----3-----|--1---1-----|---1-----0----||
||*--2-------0-------2----|---0--0---*|----4----*|--0---0----*|---2-----1----||
||*--2-------2-------3----|---2--2---*|----5----*|--2---2----*|---3-----2----||
||---0-------2-------3----|---3--2----|----5-----|--3---2-----|---3-----2----||
||-----------0-------1----|-----------|----3-----|------------|---1-----0----||

SOLO/RIFF:
(PLAY TWICE)
NOTE: I haven't written the exact amount of chords in every beat...you need to figure that out for yourself by listening to the cd...;-)

						       1.------------------------------------------|2.-----------------------||
						       |				           |  F  F             E     ||
||-----------------------------------------------------|-------------------------------------------|--1--1-------------0-----||
||---x-x----------------------------12----8--8-8-8-8---|---x-x-------------------------------------|--1--1-------------0-----||
||*--9/101010-9-9--7-7--5---7-9-----x-----x--x-x-x-x---|---9/101010-9-9--7-7--5---7-9---7-9--9-9--*|--2--2--8 times...-1-----||
||*--x-x-x-x--x-x--x-x--x---x-x-----9-----5--5-5-5-5---|---x-x-x-x--x-x--x-x--x---x-x---x-x--x-x--*|--3--3-------------2-----||
||---7/8-8-8--7-7--5-5--3---5/7------------------------|---7/8-8-8--7-7--5-5--3---5/7---5/7--7-7---|--3--3-------------2-----||
||-----------------------------------------------------|-------------------------------------------|--1--1-------------0-----||



CHORUS 2
(PLAY UNTIL FADED AWAY)
(listen to the cd to find the exact rythm!)

			  
     C	     G       Dm       Am    
||---3-------3-------5--------5-----||
||---3-------3-------6--------5-----||
||*--5-------4-------7--------5-----||
||*--5-------5-------7--------7-----||
||---5-------5-------5--------7-----||
||---3-------3----------------5-----||
Comments