Lifehouse - Sick Cycle Carousel Chords & Tabs

 

Sick Cycle Carousel Chords & Tabs

Lifehouse Chords & Tabs

Version: 6 Type: Tab 0 ratings
1 star 2 stars 3 stars 4 stars 5 stars
comments

Sick Cycle Carousel Tab

##################################################################################
# This file is the author's own work and represents their interpretation of the  #
# song. You may only use this file for private study, scholarship, or research.  #
##################################################################################

Ok, I think this tab is PERFECT, and so do all of my friends!
It's the whole song, so here it is...

               *~intro~*

E-----------------------------------------------------------------------
B-----------------------0-------------------------0h1-------------------
G---------------------0---0---------------------------0---0-------------
D-----3-2-2-0-0-----2---------------3-2-2-0-0---2-------2---3-----------
A---3-----------3-0---------------3-----------3-------------------------
E-1-----------------------------1---------------------------------------
                                 
                                       (Repeat) The lyrics come in the
                                       secind time this is played


E------------------------------------------------X---------
B-----------------------0------------------------X---------
G---------------------0---0----------------------X---------
D-----3-2-2-0-0-----2----------------3-2-2-0-0---2---------
A---3-----------3-0----------------3-----------3-2---------
E-1------------------------------1---------------0---------
                                              ...go now one more time..

(This part is the electric guitar part, and uses an effects pedal)

E-------------------------------------------------------
B-------------------------------------------------------
G-------------------------------------------------------
D-------------------------------------------------------
A-0h7-0h6s7--0h7-0h7s12s7--0h7-0h6s7--14s12s7-----------
E-------------------------------------------------------
                                         (Repeat)


CHORUS

This comes in RIGHT after the chorus! It is used with an effects pedal 
also. While this is playing the acoustic guitar is playing the intro)
[ Tab from: http://www.guitartabs.cc/tabs/l/lifehouse/sick_cycle_carousel_tab_ver_6.html ]
E---------------------------------------------------------
B---------------------------------------------------------
G-----------------------0---------------------------------
D-----3-2-2-0-0-----2s9--------3-2-2-0-0---2--------------
A---3-----------3-0----------3-----------3----------------
E-1------------------------1------------------------------



VERSE 2:

E-----------------------------------------------------------------------
B-----------------------0-------------------------0h1-------------------
G---------------------0---0---------------------------0---0-------------
D-----3-2-2-0-0-----2---------------3-2-2-0-0---2-------2---3-----------
A---3-----------3-0---------------3-----------3-------------------------
E-1-----------------------------1---------------------------------------


E-----------------------------------------------0--0--0--0-----------------
B-----------------------0-----------------------0--0--0--0-----------------
G---------------------0---0---------------------0--0--0--0-----------------
D-----3-2-2-0-0-----2---------------3-2-2-0-0---2--2--2--2-----------------
A---3-----------3-0---------------3-----------3-2--2--2--2-----------------
E-1-----------------------------1---------------0--0--0--0-----------------



THESE TWO PARTS ARE PLAYED AT THE SAME TIME!!!:

                THIS
E-------------------------------------------------------
B-------------------------------------------------------
G-------------------------------------------------------
D-------------------------------------------------------
A-0h7-0h6s7--0h7-0h7s12s7--0h7-0h6s7--14s12s7-----------
E-------------------------------------------------------
                                       (Repeat)
            ~*~*~*~AND~**~**~

Verse


Same Chords while fading with "sick cycle carousel..."



THATS IT! It really didn't take me that long to figure out. Keep in mind, I'm
only 14 years old! It's a REALLY simple song, and the BEST song! If you got any
question OR comments, give me feedback! E-mail me at...


    guitarplaya189@hotmail.com
E---------------------------------------------------------
B---------------------------------------------------------
G-----------------------0---------------------------------
D-----3-2-2-0-0-----2s9--------3-2-2-0-0---2--------------
A---3-----------3-0----------3-----------3----------------
E-1------------------------1------------------------------
                                      (REPEAT!)
Comments