Lifehouse - Sick Cycle Carousel Chords & Tabs

 

Sick Cycle Carousel Chords & Tabs

Lifehouse Chords & Tabs

Version: 1 Type: Tab 0 ratings
1 star 2 stars 3 stars 4 stars 5 stars
comments

Sick Cycle Carousel Tab

Song: Sick Cycle Carousel
Band: Lifehouse
From: No Name Face
Tab:  Adam Urbz
Mail: pickboy87@cs.com
Tune: Standard

  Intro/Verses:
E|-----------------------------------------------|
B|----------------------------------0------------|
G|*-------------------------------------0--------|
D|*-------3--2-2--0--0-----2--2--2------------2--|
A|-----3-------x--------3--0-----------------(0)-|
E|--1----------3---------------------------------|

E|-----------------------------------------------|--0--|
B|----------------------------0h1p0--------------|--0--|
G|----------------------------------0-------0---*|--1--|
D|--------3--2-2--0--0--2--2-----------2------3-*|--2--|
A|-----3-------x-----------0---------------------|--2--|
E|--1----------3---------------------------------|--0--|

  Pre-Chorus:
E|--5-5--0-0--1-1--3-3--|
B|--5-5--0-0--1-1--3-3--|
G|*-5-5--1-1--2-2--4-4-*|
D|*-7-7--2-2--3-3--5-5-*|
A|--7-7--2-2--3-3--5-5--|
E|--5-5--0-0--1-1--3-3--|
[ Tab from: http://www.guitartabs.cc/tabs/l/lifehouse/sick_cycle_carousel_tab.html ]
  Chorus:(Acoustic)
E|--0-0-0-0--3-3-3-3--1-1-1-1--0-0--3-3--|
B|--1-1-1-1--3-3-3-3--3-3-3-3--1-1--0-0--|
G|--0-0-0-0--0-0-0-0--2-2-2-2--2-2--0-0-*|
D|--2-2-2-2--0-0-0-0--0-0-0-0--2-2--0-0-*|
A|--3-3-3-3--2-2-2-2-----------0-0--x-x--|
E|-----------3-3-3-3----------------3-3--|

  Post-Chorus:(Electric w/ slight vibrato)
E|---------------------------------------------------|
B|----------------------12--8------------------------|
G|--10\9--9\7--7\5--/9---x--x----10\9--9\7--7\5--/9--|
D|---x-x--x-x--x-x---x---9--5-----x-x--x-x--x-x---x--|
A|---8\7--7\5--5\3--/7------------8\7--7\5--5\3--/7--|
E|---------------------------------------------------|

  Chorus:(Electric Lead)
E|---------------------------------------|
B|-----13------15---------13-----12------|
G|*-12------12---------10-----12--------*|
D|*-------------------------------------*|
A|---------------------------------------|
E|---------------------------------------|

  Break:"Sick cycle carousel"...
E|--------------------Gtr.1|-----|
B|-------------------------|-----|
G|--5--5---9-9--5-5---7-7--|--9--|
D|--7--7---9-9--5-5---7-7--|--9--|
A|--7--7---7-7--3-3---5-5--|--7--|
E|--5--5-------------------|--0--|
 |			   |     |
E|--------------------Gtr.2|-----|
B|-------------------------|-----|
G|--2------9----5-----7----|--9--|
D|--x------x----x-----x----|--x--|
A|--0------7----3-----5----|--7--|
E|-------------------------|-----|
Comments