Lifehouse - Sick Cycle Carousel Chords & Tabs

 

Sick Cycle Carousel Chords & Tabs

Lifehouse Chords & Tabs

Version: 1 Type: Bass Tab 0 ratings
1 star 2 stars 3 stars 4 stars 5 stars
comments

Sick Cycle Carousel Bass Tab

Artist: Lifehouse
Song: Sick Cycle Carousel
Tabbed by Don Fisher (dwfisher13@collegeclub.com)
Note:  Tunned down half a step

No bass in the intro...leads into the pre-chorus


 Verses:

G |------------------4-0-------0--------7h9h7--|
D |--3-30-5-50-2-02-----03-30-5-50-07----------|
A |--------------------------------------------|
E |--------------------------------------------|
						
 |-----------------4-0------------------------|
 |--3-30-5-50-2-02----03-33-333 322-----------|
 |--------------------------------------------|
 |--------------------------------------------|
						X2
 PRE CHORUS:
[ Tab from: http://www.guitartabs.cc/tabs/l/lifehouse/sick_cycle_carousel_btab.html ]
 |----------------------------------------|
 |------------------------------55--------|   X2
 |---0-77-78-8-0-3-2-0--0-77-78-----------|
 |-----------------------------(3)--------|


 Chorus:
 Repeat twice (note: some variations)
     	
 |-----------------------------------------|
 |-----------------------------------------|   X2
 |-3--33 5-------5-5578-7-5--0-2-3---------|
 |--------3--33-5--------------------------|



 Interlude:


 |----------------------------------------|
 |-----------------------------55---------|  x2   
 |---0-77-78-8-0-3-2-0--0-77-78-----------|
 |-----------------------------(3)--------|
There is a killer fill here.

 


 
Slowly tabbing my way through this entire album!!!!
Note:  There are a ton of fills that aren't include...here's a project for you.

Comments