Lifehouse - Quasimodo Chords & Tabs

 

Quasimodo Chords & Tabs

Lifehouse Chords & Tabs

Version: 1 Type: Tab 0 ratings
1 star 2 stars 3 stars 4 stars 5 stars
comments

Quasimodo Tab

   
Quasimodo by Lifehouse
transcribed from the No Name Face Tab Book

chords:
--0---0---3---x---x---x---1---3---x---0---x--
--1---1---2---x---x---x---1---3---0---0---x--
--2---0---0---x---x---x---2---4---0---1---x--
--2---2---0---7---10--5---3---5---0---2---3--
--0---3---2---7---10--5---3---5---2---2---3--
--0---0---3---5---8---3---1---3---x---0---1--
 Am   C   G   A5  C5  G5  F  G3  G/B  E  F5


intro:
--------------------------------------------------
--------------------------------------------------
--12/14--14-14-14/16--16-16-16/17-17-17-17/19-19\- 
--x------x--x--x------x--x--x-----x--x--x-----x---
--10/12--12-12-12/14--14-14-14/15-15-15-15/17-17\-
--------------------------------------------------

--------------------------------------------------
--------------------------------------------------
--12/14--14-14-14/16--16-16-16/17-17-17-17/19-19\- 
--x------x--x--x------x--x--x-----x--x--x-----x---
--10/12--12-12-12/14--14-14-14/15-15-15-15/17-17\-
--------------------------------------------------

--------------------------------------------------
--------------------------------------------------
--12/14--14-14-14/16--16-16-16/17-17-17-17/19-19\- 
--x------x--x--x------x--x--x-----x--x--x-----x---
--10/12--12-12-12/14--14-14-14/15-15-15-15/17-17\-
--------------------------------------------------

--------------------------------------------------
--------------------------------------------------
--12/14-14\-9------7/9---12----12/14-14\-9---7/9--
--x-----x---x------x-----x-----x-----x---x---x----
--10/12-12\-7------5/7---10----10/12-12\-7---5/7--
--------------------------------------------------

verses:
Am-C-G

pre-chorus:
F-G3-Am-C-F-G3

1st chorus:
C-G/B-Am-G3-F-E
[ Tab from: http://www.guitartabs.cc/tabs/l/lifehouse/quasimodo_tab.html ]
pre second verse:
--------------------------------------------------
--------------------------------------------------
--12/14--14----14---(14)/17--17--17----17\--------
--x------------x-------------x---x-----x----------
--10/12--12----12---(12)/15--15--15----15\--------
--------------------------------------------------

--------------------------------------------------
--------------------------------------------------
--12/14--14-14-14/16--16-16-16/17-17-17-17/19-19\- 
--x------x--x--x------x--x--x-----x--x--x-----x---
--10/12--12-12-12/14--14-14-14/15-15-15-15/17-17\-
--------------------------------------------------

--------------------------------------------------
--------------------------------------------------
--12/14--14-14-14/16--16-16-16/17-17-17-17/19-19\- 
--x------x--x--x------x--x--x-----x--x--x-----x---
--10/12--12-12-12/14--14-14-14/15-15-15-15/17-17\-
--------------------------------------------------

--------------------------------------------------
--------------------------------------------------
--12/14--14\-9------------------------------------
--x------x---x------------------------------------
--10/12--12\-7------------------------------------
--------------------------------------------------

2nd chorus:
C-G/B-Am-G3-F-E-F-G3-C-G/B-Am-G3-F-G3

bridge:
--------------------------------------------------
--------------------------------------------------
--------------------------------------------------
--------------------------------------------------
--7---5---4--5---0-----2----7---5----4--5--4--4/--
--8---6---5--5---1-----3----8---6----5--5--5--5/--

pre-chorus
F5-G5-A5-C5-F5-G5

last chorus
C-G/B-Am-C-F-G3-C-G/B-Am-G3-F-E-Am
Comments