Lifehouse - Into The Sun Chords & Tabs

 

Into The Sun Chords & Tabs

Lifehouse Chords & Tabs

Version: 2 Type: Tab 0 ratings
1 star 2 stars 3 stars 4 stars 5 stars
comments

Into The Sun Tab

   
Intro
E --0-0----0---0--3-5-----0-0----0---0--3--5----|
B -------3---3---------3-------3---3----------3-|
G ----------------------------------------------|
D ----------------------------------------------|
A ----------------------------------------------|
E ----------------------------------------------|


Verse 1
Am			 F	      C
It's been a while since you last saw me
Am			 F	     C
One breaks down and the other runs free
Am		  F		C
These eyes can't see the days break
Am	  	   F	    C
Too late for the others mistake

Solo from 1.verse to pre-chorus:
        E ---------------|
        B --1--0---------|
        G --------0------|
        D ---------------|
        A ---------------|
        E ---------------|


Pre-Chorus
Dm			 	Am
Sit down thinking what have we done
C	   G
Let me inside
Dm			     Am
Is it all over before it's begun
C		      G
Please give me some time


Chorus
	      F	       C       G
Cause we are running (into the sun)
		  F	     C       G
Getting close to something (into the sun)
		     F	  	C	    G
You know that we're falling (we're falling back)
	  Dm	 	G
Into the sun...




Solo
E --0-0----0---0--3-5-----0-0----0---0--3--5----|
B -------3---3---------3-------3---3----------3-|
G ----------------------------------------------|
D ----------------------------------------------|
A ----------------------------------------------|
E ----------------------------------------------|

[ Tab from: http://www.guitartabs.cc/tabs/l/lifehouse/into_the_sun_tab_ver_2.html ]
Verse 2
Am  	 F		 C
I never meant to let you go
Am			F	   C
Why did I leave maybe we'll never know
Am		   F		  C
But I'm a man now broken on the ground
Am		    F		   C
I'm in need and I think that it shows


Pre-chorus
Dm					  Am
All this time we're going nowhere and we know it
C	     G
I was so blind
Dm					   Am
All the lights are leading to where you're going
C	       G
I'm not far behind


Chorus
	      F	       C       G
Cause we are running (into the sun)
		  F	     C       G
Getting close to something (into the sun)
		     F	  	C	    G
You know that we're falling (we're falling back)
	  Dm    G		
Into the sun...			3x
	 Am
Into the sun

Bridge
Am	C	G      3x
Dm 	G

Chorus
	      F	       C       G
Cause we are running (into the sun)
		  F	     C       G
Getting close to something (into the sun)
		     F	  	C	    G
You know that we're falling (we're falling back)
	  Dm    G		
Into the sun...			3x
	 Am
Into the sun


Solo
E --0-0----0---0--3-5-----0-0----0---0--3--5----|
B -------3---3---------3-------3---3----------3-|
G ----------------------------------------------|
D ----------------------------------------------|
A ----------------------------------------------|
E ----------------------------------------------|


E --0-0----0---0--3-5-----0-0----0---0--0-------|
B -------3---3---------3-------3---3------------|
G ----------------------------------------------|
D ----------------------------------------------|
A ----------------------------------------------|
E ----------------------------------------------|
Comments