Lifehouse - Into The Sun Chords & Tabs

 

Into The Sun Chords & Tabs

Lifehouse Chords & Tabs

Version: 1 Type: Tab 0 ratings
1 star 2 stars 3 stars 4 stars 5 stars
comments

Into The Sun Tab

   
Lifehouse
Into the sun(from their 2005-album "Lifehouse")
Tabbed by:Colgate Maclay

Chords: Am=x02210
         C=032010
        Em=022000
         F=x03211
         G=320033

Intro: E ------------------------------------|
       H ------------------------------------|
       G --9--9--7-9-7-9--10--9--12--14--9---|
       D ------------------------------------|
       A ------------------------------------|
       E ------------------------------------|

Verse1:    Am                          C
        Its been a while since you last saw me
              Em                      C
        One breaks down and the other runs free
           Am                         C
        These eyes cant see the days break
            Em                          C
        Too late for the others mistake

Solo from 1.verse to pre-chorus:
        E -----------------|
        H -----------------|
        G ---7--6---2------|
        D -----------------|
        A -----------------|
        E -----------------|


Pre-chorus:      Em                      Am
           Sit down and thinking what have we done
               C            G
           Let me inside.
                 Em                Am
           Is it all over before its begun?
               C              G
           Please,give me some time.

Chorus:      F                        C
        Cause we are running        Into the sun
             Em                       Am
       Getting close to something   Into the sun
            F                         C
        You know that were falling  Were falling back
            Am                 Em
             Into the suuuuunn
[ Tab from: http://www.guitartabs.cc/tabs/l/lifehouse/into_the_sun_tab.html ]
Verse2:    Am                    C
        I never meant to let you go.
            Em                       C
        Why did I leave,maybe well never know
            Am                       C
        But Im a man now broken on the ground.
            Em                   C
        Im in need and I think that it shows.

Solo in pre-chorus:
             E -----------------------------------|
             H -10-10-10--12-12-12--13-13-13--12--|
             G -----------------------------------|
             D -----------------------------------|
             A -----------------------------------|
             E -----------------------------------|

Pre-Chorus:      Em                           Am
           All this time were going nowhere and we know it.
              C            G
           I was so blind.
                  Em                       Am
           All the lights are leading to where youre going.
               C          G
           Im not far behind.

Chorus:        F                     C
         And now were running      Into the sun
             Em                        Am
       Getting close to something   Into the sun.
             F                        C
        You know that were falling  Were falling back
             Em       Am         F        C
           Into the suuun       Into the suuun
             Em         Am
            Into the sun.

Bridge:(not quite sure about that part)
       E --------------------------------------|
       H --------------------------------------|
       G -------9-9-9-------7-5-4--------------|  REPEAT 3x
       D --7-7---7-7---5--5--------------------|
       A --------------------------------------|
       E --------------------------------------|

       E --------------------------------------|
       H --------------------------------------|
       G -------5-5-5-------7-7-7--------------|
       D --3--3--------5--5--------------------|
       A --------------------------------------|
       E --------------------------------------|

Acoustic guitar plays in bridge the same chords as int he chorus.Also 3x I think.But at 
end of the bridge the last chord is G instead of Am.Keep on playing the bridge tabs in 
chorus.

Chorus:  F                         C
        You know that were running.....

 Outro the same as Intro.(4x)
  End on C.
Comments