Lifehouse - How Long Chords & Tabs

 

How Long Chords & Tabs

Lifehouse Chords & Tabs

Version: 1 Type: Tab 0 ratings
1 star 2 stars 3 stars 4 stars 5 stars
comments

How Long Tab


Artist: Lifehouse
Song: How Long
Tabbed by: GCF_14
Email: feander_14@yahoo.com
Tuning: EADGBE


Intro:

E|-----------5---5---7---7---5---5----------------------|
B|-----5---5---5---5---5---5---5---5--------------------|
G|---6---6----------------------------------------------|(4x)
D|------------------------------------------------------|
A|------------------------------------------------------|
E|------------------------------------------------------|

Verse 1:

E|-----------5---5---7---7---5---5---------------------|
B|-----5---5---5---5---5---5---5---5-------------------|
G|---6---6---------------------------------------------|(4x)
D|-----------------------------------------------------|
A|-----------------------------------------------------|
E|-----------------------------------------------------|

Chorus:
  
  (guitar 1)  How long till the world..............
E|--------------------------------------------------------------------|
B|--------------------------------------------------------------------|
G|--------6----7---------------6----7---------------6----7-7-7--------|
D|---4----6----7----7-----4----6----7----7-----4----6----7-7-7--------|
A|---4----4----5----7-----4----4----5----7-----4----4----5-5-5--------|
E|---2--------------5-----2--------------5-----2----------------------|

  (guitar 2)
E|-------------------------------------------------------------------|
B|---7--7---7---7---6---6---6---6---7---7---7---9---5---5---5---5----|
G|----6---6---6---6---6---6---6---6---7---7---7---7---6---6---6---6--|(2x)
D|-------------------------------------------------------------------|
A|-------------------------------------------------------------------|
E|-------------------------------------------------------------------|

E|-------------------------------------------------------------------|
B|---7---7---7---7---6---6---6---6---7---7---7---7-------------------|
G|-----6---6---6---6---6---6---6---6---7---7---7---7----7-7-7--------|
D|------------------------------------------------------7-7-7--------|
A|------------------------------------------------------5-5-5--------|
E|-------------------------------------------------------------------|
[ Tab from: http://www.guitartabs.cc/tabs/l/lifehouse/how_long_tab.html ]
  you can also play this guitar 2 bcoz its also cool!!!
E|-------------------------------------------------------------------|
B|---7-7-7-7-6-6-6-6-7-7-7-9-5-5-5-5---------------------------------|(2x)
G|-------------------------------------------------------------------|
D|-------------------------------------------------------------------|
A|-------------------------------------------------------------------|
E|-------------------------------------------------------------------|

E|---------------------------------------------------|
B|---7-7-7-7-6-6-6-6-7-7-7-7-------------------------|
G|-----------------------------7-7-7-----------------|
D|-----------------------------7-7-7-----------------|
A|-----------------------------5-5-5-----------------|
E|---------------------------------------------------|

   (guitar 1) How long....how long..............
E|-------------------------------------------------------------------|
B|-------------------------------------------------------------------|
G|---------7-----------6-----7---------------------------------------|
D|---7-----7-----4-----6-----7---------------------------------------|
A|---7-----5-----4-----4-----5---------------------------------------|
E|---5-----------2---------------------------------------------------|

  (guitar 2)
E|---5--7--9-9-9-9--5--7--9-9-9-------------------|
B|------------------------------------------------|
G|------------------------------------------------|
D|------------------------------------------------|
A|------------------------------------------------|
E|------------------------------------------------|

Verse 2: DO VERSE 1 TAB
Chorus : DO CHORUS TAB
 
Solo:

E|-------------------------------------------------------------------|
B|-------------------------------------------------------------------|
G|-------------------------------------------------------------------|
D|-------------------------------------------------------------------|
A|---9-9-9-11-9-8-8-8-9-11-12-11-9--------7\17-----------------------|
E|---------------------------------7-9-12----------------------------|

E|-------------------------------------------------------------------|
B|-------------------------------------------------------------------|
G|-------------------------------------------------------------------|
D|-------------------------------------------------------------------|
A|---9-9-9-11-9-8-8-8-9-11-12-11-9-----------------------------------|
E|---------------------------------7-9-12----------------------------|

REPEAT CHORUS

Outro:

E|---2-----4-----5-----5-----------------------------|
B|---2-----6-----7-----5-----------------------------|
G|---2-----6-----7-----6-----------------------------|(4x)
D|---4-----6-----7-----7-----------------------------|
A|---4-----4-----5-----7-----------------------------|
E|---2-----x-----x-----5-----------------------------|



..............................THAT's ALL..........................
Comments