Lifehouse - Hanging By A Moment Chords & Tabs

 

Hanging By A Moment Chords & Tabs

Lifehouse Chords & Tabs

Version: 8 Type: Tab 0 ratings
1 star 2 stars 3 stars 4 stars 5 stars
comments

Hanging By A Moment Tab

   
Lifehouse Hanging By A Moment.
Tabbed by Simon, no address.
  
Hey guys I am pretty sure this is exact but don't take it out on me if I am wrong I am only thirteen.  This is how we play it in our little excuse for a band that I have with a few friends, so try it and see what u think.
And note that the tuning is different, k?

* When you see this symbol beside a note, it means the note is a short, staccato note that sn't as loud as the others

Also, remember that at the part where it says, "there's nothing left to lose!" and after that,
there will be a letter G in the middle of the line, when it says that, it is simply the G chord, got it? good!
 
Here goes!

Eb---------------------------------
Bb---------------------------------
Gb-----------------------0---------
Db------0--2-0---------0---4-2-0----
Ab----0--------0-0*-0*--------------
Db-7\0-------------------------------
   Desperate for changing

Eb---------------------------------
Bb---------------------------------
Gb-----------------------0---------
Db-----0--2-0---------0---4-2-0----
Ab---0--------0-0*-0*--------------
Db-0-------------------------------
   starving  for  truth

Eb--------------------------------------
Bb--------------------------------------
Gb----------------------------0---------
Db--------0---2--0---------0----4-2-0---
Ab----0------------0-0*-0*----------------
Db-0------------------------------------
 I'm closer to where i started

Eb---------------
Bb---------------
Gb-----------------
Db------0--2-0-----
Ab----0--------0---
Db-0---------------
  chasing after you

Eb--------------------------0----2---------0----------
Bb-------------------3----------------3----------3----
Gb----------------------------------------------------
Db----------------------------------------------------
Ab----------------------------------------------------
Db----------------------------------------------------
 I'm falling even more in love with you, letting go of

Eb-3--------0----2------0----3--2----0-----
Bb------------------3--------------------3-
Gb-----------------------------------------
Db-----------------------------------------
Ab-----------------------------------------
Db-----------------------------------------
  All I've held on to, I'm standing here un-

Eb-3-------0---2-------------0-----------------------
Bb-----------------3-----------------3---------------
Gb---------------------------------------------------
Db---------------------------------------------------
Ab---------------------------------------------------
Db---------------------------------------------------
  til you make me move, i'm hangin' by a 

Eb-3------0----2------
Bb------------------3-
Gb--------------------
Db--------------------
Ab--------------------
Db--------------------
  moment here with you

Eb-3--------0----2------0----3--2----0-----
Bb------------------3--------------------3-
Gb-----------------------------------------
Db-----------------------------------------
Ab-----------------------------------------
Db-----------------------------------------

Eb-3--------0----2------0----3--2----0-----
Bb------------------3--------------------3-
Gb-----------------------------------------
Db-----------------------------------------
Ab-----------------------------------------
Db-----------------------------------------

Eb---3-------0---2---------0----3--2----0-----
Bb--------------------3--------------------3-
Gb-----------------------------------------
Db-----------------------------------------
Ab-----------------------------------------
Db-----------------------------------------
 Forgetting all I'm lacking  

Eb-----3------0---2---------0----3--2----0-----
Bb--------------------3--------------------3-
Gb-----------------------------------------
Db-----------------------------------------
Ab-----------------------------------------
Db-----------------------------------------
   completely incomplete

Eb-----3---------0-2------0----3--2----0-----
Bb-------------------3--------------------3-
Gb-----------------------------------------
Db-----------------------------------------
Ab-----------------------------------------
Db-----------------------------------------
 I'll take your invitation

Eb-3--------0--2---------
Bb----------------3------
Gb-----------------------
Db-----------------------
Ab-----------------------
Db-----------------------
  You take all of me,    And I'm falling even 

  Bm   Bm Bm   A    D     D   D   D  D
  more in love with you!  Letting go of 
  
  Bm  Bm   Bm   A  D       D   D    D    D
  all I've held on to! I'm standing here un-
  
  Bm  Bm  Bm   A  D
  til you make me move! 

      D   D   D  D Bm Bm  Bm   A    D
  I'm hangin' by a moment here with you!

     D  D   D   D   Bm Bm Bm    A D
 I'm livin' for the on-ly thing I know!

     D   D   D   D   Bm    Bm   Bm    A  D
 I'm running and not quite sure where to go!

     D D     D    D    Bm  Bm Bm  A D
 And I don't know what I'm diving into!

      D   D   D  D Bm Bm  Bm   A    D
 Just hangin' by a moment here with you! 

THIS PART IS DONE BY A SECOND GUITAR IN STANDARD TUNIN
But note, at the part where it has a & sign, the first guitar plays the 6th, then 5th, then first fret on the Db string (the third lowest string)
Eb------------------------------------------
Bb------------------------------------------
Gb------------------------------------------
Db------------------------------------------
Ab------------------------------------------
Db------------------------3- G -2-3- G -3- G 
There's nothing left to lose! 
[ Tab from: http://www.guitartabs.cc/tabs/l/lifehouse/hanging_by_a_moment_tab_ver_8.html ]
Eb-----------------------------------------
Bb-----------------------------------------
Gb-----------------------------------------
Db-----------------------------------------
Ab-----------------------------------------
Db-2--3-- G --3-- G --2--3---&--------------------
There's nothing left to find!

Eb-----------------------------------------
Bb-----------------------------------------
Gb-----------------------------------------
Db-----------------------------------------
Ab-----------------------------------------
Db------------------------3- G -2-3- G -3- G 
 There's nothing in the world!

Eb-----------------------------------------
Bb-----------------------------------------
Gb-----------------------------------------
Db-----------------------------------------
Ab-----------------------------------------
Db-2--3- G --3-- G -2--3- G ---------------
  That could change my mind!

HERE THE FIRST GUITAR STARTS PLAYING AGAIN BUT THE CHORDS ARE DONE BY THE SECOND GUITAR!!!

                    G     A         Em  G   A
Eb------------------------7-5------------------
Bb------------------7-5-7-----7-5-3-----7-5----
Gb----------------------------------4-2-----4-2
Db---------------------------------------------
Ab---------------------------------------------
Db---------------------------------------------
  There is nothing  e   -    l    -   s   -   e

                   G    A         Em
Eb-----------------------------------------
Bb-----------------9--7--------4--9--7-----
Gb----------------------6-4-4----------6--4
Db-----------------------------------------
Ab-----------------------------------------
Db-----------------------------------------
 There is nothing e   -   l   -   s   -   e

                     G   A        Em
Eb-----------------------------------------
Bb-------------------9-7-10-9-7-9\2--------
Gb-----------------------------------------
Db-----------------------------------------
Ab-----------------------------------------
Db-----------------------------------------
  There is nothing else!

Eb---------------------------------
Bb---------------------------------
Gb-----------------------0---------
Db------0--2-0---------0---4-2-0----
Ab----0--------0-0*-0*--------------
Db-7\0-------------------------------
   Desperate for changing

Eb---------------------------------
Bb---------------------------------
Gb-----------------------0---------
Db-----0--2-0---------0----4-2-0----
Ab---0--------0-0*-0*--------------
Db-0-------------------------------
   starving  for  truth

Eb--------------------------------------
Bb--------------------------------------
Gb----------------------------0---------
Db--------0---2--0---------0----4-2-0---
Ab----0------------0-0*-0*--------------
Db-0------------------------------------
 I'm closer to where i started

Eb--------------------------------
Bb--------------------------------
Gb-----------------------0-------- 
Db------0--2-0---------0---4-2-0-0
Ab----0--------0-0*-0*------------
Db-0------------------------------
   chasing  after  you

                 Bm   Bm Bm   A    D    D   D   D  D
I'm falling even more in love with you! Letting go of

 Bm  Bm   Bm   A  D       D    D   D    D
 all I've held on to, I'm standing here un-
 
 Bm  Bm  Bm   A  D          D   D   D  D
 til you make me move, just hangin' by a 

 Bm Bm  Bm   A    D         D  D   D   D
 moment here with you!  I'm livin' for the

 Bm Bm Bm    A D          D    D   D   D
 on-ly thing I know!  I'm runnning and not

 Bm    Bm   Bm    A  D        D D     D    D
 quite sure where to go!  And I don't know what 

Bm  Bm Bm  A D      D   D   D  D Bm Bm  Bm   A    D
I'm diving into I'm hangin' by a moment here with you!

HEY!  ANOTHER NOTE!  THIS NEXT PART HAS BOTH GUITARS PLAYIN AT THE SAME TIME!  THE FIRST GUITAR IS PLAYIN' THE CHORDS AND THE NOTES ARE PLAYED BY THE SECONG GUITAR.

              Bm Bm Bm A D
Eb------------------------------------------
Bb------------------------------------------
Gb-------------4-4--4--2--------------------
Db-----------------------4------------------
Ab------------------------------------------
Db------------------------------------------
 Hangin' by a moment 


              Bm Bm Bm A D
Eb------------------------------------------
Bb------------------------------------------
Gb-------------4-4--4--2--------------------
Db-----------------------4------------------
Ab------------------------------------------
Db------------------------------------------
 Hangin' by a moment 


              Bm Bm Bm A D
Eb------------------------------------------
Bb------------------------------------------
Gb-------------4-4--4--2--------------------
Db-----------------------4------------------
Ab------------------------------------------
Db------------------------------------------
 Hangin' by a moment 


              Bm Bm Bm A D
Eb------------------------------------------
Bb------------------------------------------
Gb-------------4-4--4--2--------------------
Db-----------------------4------------------
Ab------------------------------------------
Db------------------------------------------
 Hangin' by a moment 

OK THATS IT!  BUT TO FIX IT UP, YOU CAN ADD THE BACKGROUND SINGER DURING THE CHORUS (THE MAIN CHORD PART) YOU CAN LISTEN FOR WHAT IT IS, AND AT THE ENDING THERES BACKGROUND SINGIN', AND, WHEN YOU PLAY THE FOUR D CHORDS REALLY FAST, AT FOR EXAMPLE, "HANGIN' BY A" THOSE FOUR D CHORDS, YOU CAN PLAY 3,2,0, ON THE Eb STRING, AND THEN 3 ON THE Bb STRING. 
:: Ultimate Guitar Archive :: 
http://www.ultimate-guitar.com 

Comments