Lifehouse - Hanging By A Moment Chords & Tabs

 

Hanging By A Moment Chords & Tabs

Lifehouse Chords & Tabs

Version: 7 Type: Tab 0 ratings
1 star 2 stars 3 stars 4 stars 5 stars
comments

Hanging By A Moment Tab

lifehouse, Hanging by a moment.
Tabbed by Dean, hvensgte@aol.com.
  
Hey guy I have seen many tabs for this song that are some what ok but here is the most accurate one that I decided to figure out. 

verse;
|-------------------------|-----------------------------------
|-------------------------|-----------------------------------
|-------------------------|-----------------------------------
|---------0--2----0-------|-------0-------5--4--0-------------
|------0----------------0-|----0------0------------0----------
|---0----------------0----|-0---------------------------------

|-------------------------|-----------------------------------
|-------------------------|-----------------------------------
|-------------------------|-----------------------------------
|---------0--2----0-------|-------0-------5--4--0-------------
|------0----------------0-|----0------0------------0----------
|---0----------------0----|-0---------------------------------

Chours;
E|------------------------------------------------------|   
B|------------------------------------------------------|   
G|------------7-7-7-7-----------------------------------|   
D|--5-5-5-5---7-7-7-7---7-7-7-7---0-0-0-0---------------|   
A|--5-5-5-5---5-5-5-5---7-7-7-7---0-0-0-0---------------|   
D|--5-5-5-5-------------7-7-7-7---0-0-0-0---------------|  2x 

"There's nothing else to lose..." 
[ Tab from: http://www.guitartabs.cc/tabs/l/lifehouse/hanging_by_a_moment_tab_ver_7.html ]
E|-------------------------------------------------------|   
B|-------------------------------------------------------|   
G|-------------------------------------------------------|   
D|----4s5-5---4s5-5---4s5-5---4s5-5---0-0-0-0------------|   
A|----4s5-5---4s5-5---4s5-5---4s5-5---0-0-0-0------------|   
D|----4s5-5---4s5-5---4s5-5---4s5-5---0-0-0-0------------|  2x 

"There's nothing else..." 

E|-------------------------------------------------------------|   
B|-------------------------------------------------------------|   
G|-------------------------------------------------------------|   
D|----5-5--5-5-5---7-7--7-7-7---2-2---2-2-2-2-2--2-2-2---------|   
A|----5-5--5-5-5---7-7--7-7-7---2-2---2-2-2-2-2--2-2-2---------|   
D|----5-5--5-5-5---7-7--7-7-7---2-2---2-2-2-2-2--2-2-2---------|  2x 

"I'm falling even more in love with you..." 

E|------------------------------------------------------|   
B|------------------------------------------------------|   
G|------------7-7-7-7-----------------------------------|   
D|--5-5-5-5---7-7-7-7---7-7-7-7---0-0-0-0---------------|   
A|--5-5-5-5---5-5-5-5---7-7-7-7---0-0-0-0---------------|   
D|--5-5-5-5-------------7-7-7-7---0-0-0-0---------------|  2x 


"Hanging by a moment..." 

E|------------------------------------------------------|   
B|------------------------------------------------------|   
G|------------7-7-7-7-----------------------------------|   
D|--5-5-5-5---7-7-7-7---7-7-7-7---0-0-0-0---------------|   
A|--5-5-5-5---5-5-5-5---7-7-7-7---0-0-0-0---------------|   
D|--5-5-5-5-------------7-7-7-7---0-0-0-0---------------|  2x 



 
:: Ultimate Guitar Archive :: 
http://www.ultimate-guitar.com 

Comments