Lifehouse - Hanging By A Moment Chords & Tabs

 

Hanging By A Moment Chords & Tabs

Lifehouse Chords & Tabs

Version: 5 Type: Tab 1 rating
1 star 2 stars 3 stars 4 stars 5 stars
comments

Hanging By A Moment Tab

##################################################################################
# This file is the author's own work and represents their interpretation of the  #
# song. You may only use this file for private study, scholarship, or research.  #
##################################################################################

Lifehouse - Hanging By A Moment     

I noticed that there's no tabs for the bridge or solo of this song so i thought 
i'd complete it for you. i'm pretty sure this is all correct but i could be wrong.                          





this is the first guitar part
                                                                
D#||------|-------------------------|--------------------------|
A#||------|-------------------------|--------------------------|
F#||------|-------------------------|--------------------------|
C#||------|--------0--2----0-----0--|--------0-----5--4--0-----|  x4
G#||------|-----0-------------------|-----0-----------------0--|
C#||------|--0----------------0-----|--0--------0--------------|

                                                                               
|-------------------------|-----------------------|
|-------------------------|-----------------------|
|-------------------------|-----------------------|
|--------0--2----0--------|-----------------------|
|-----0----------------0--|-----------------------|
|--0----------------0-----|--0(let ring)----------|

(verse 1)


this is the second part for the first guitar(chorus 1)                                                                    
|-----------------------|------------------------|-----------------------|
|-----------------------|------------------------|-----------------------|
|-----------------------|------------------------|-----------------------|
|--0----0--0----2----4--|----4--4--4--5--4--0----|--0----0--0----2----0--|
|-----------------------|------------------------|-----------------------|
|-----------------------|------------------------|-----------------------|


|------------------------|-----------------------|
|------------------------|-----------------------|
|------------------------|-----------------------|
|-0----0--0--0--0--0--0--|--0----0--0----2----4--|
|------------------------|-----------------------|
|------------------------|-----------------------|

                                                                          
|------------------------|-----------------------|
|------------------------|-----------------------|
|------------------------|-----------------------|
|----4--4--4--5--4--0----|--0----0--2----0----0--|
|------------------------|-----------------------|
|------------------------|-----------------------|



while playing that part, the other guitar plays this on top

|-----------------------|------------------------|-----------------------|-----------------------|
|---------------7-------|------------------------|---------------7-------|-----------8--7--------|
|--7----7--9---------7--|----7--7--7-9---7----7--|--7----7--9---------7--|--------7--------9--7--|
|-----------------------|------------------------|-----------------------|-----------------------|
|-----------------------|------------------------|-----------------------|-----------------------|
|-----------------------|------------------------|-----------------------|-----------------------|

                                                                         
-----------------------|------------------------|-----------------------|
---------------7-------|------------------------|---------------7-------|
--7----7--9---------7--|----7--7--7h9---7----7--|--7----7--9---------7--|
-----------------------|------------------------|-----------------------|
-----------------------|------------------------|-----------------------|
-----------------------|------------------------|-----------------------|


chorus 2 ( with distortion )
1--------------------------------------
2------------3-----------------3-------
3----4-4-4-2-2---------4-4-4-2-2--7-6-4
4----4-4-4-2-0-5-4-----4-4-4-2-0------- repeat 3x
5----2-2-2-0-0-----5-0-2-2-2-0-0--5-4-2
6------------0-----------------0-------



(Bridge)

|--------------------------|--------------------------|
|--------------------------|--------------------------|
|--------------------------|--------------------------|
|--------------------------|--------------------------|
|--5--5--5--5--4--5--5--5--|--5--5--5--5--4--5--5--5--|
|--5--5--------4--5--------|--5--5--------4--5--------|

                                                                               
-------------------------|-------------------------|--------------------------|
-------------------------|-------------------------|--------------------------|
-------------------------|-------------------------|--------------------------|
--------7--7--------4r---|--------7--7--------7----|--------------------------|
--5--5--------5--5-------|--5--5--------5--5-------|--5--5--5--5--4--5--5--5--|
-------------------------|-------------------------|--5--5--------4--5--------|

                                                      
--------------------------|--------------------------|
--------------------------|--------------------------|
--------------------------|--------------------------|
--------------------------|--4--4--4--4--4--4--4--4--|
--5--5--5--5--4--5--5--5--|--2--2--2--2--2--2--2--2--|
--5--5--------4--5--------|--------------------------|

                                                      
--------------------------|--------------------------|
--------------------------|--------------------------|
--------------------------|--------------------------|
--4--4--4--4--4--4--4--4--|--------------------------|
--2--2--2--2--2--2--2--2--|--5--5--5--5--5--5--5--5--|
--------------------------|--5--5--5--5--5--5--5--5--|

                                                      
--------------------------|--------------------------|
--------------------------|--------------------------|
--------------------------|--------------------------|
--------------------------|--------------------------|
--7--7--7--7--7--7--7--7--|--2--2--2--2--2--2--2--2--|
--7--7--7--7--7--7--7--7--|--2--2--2--2--2--2--2--2--|

                                                      
--------------------------|--------------------------|
--------------------------|--------------------------|
--------------------------|--------------------------|
--------------------------|--------------------------|
--2--2--2--2--2--2--2--2--|--5--5--5--5--5--5--5--5--|
--2--2--2--2--2--2--2--2--|--5--5--5--5--5--5--5--5--|
[ Tab from: http://www.guitartabs.cc/tabs/l/lifehouse/hanging_by_a_moment_tab_ver_5.html ]
                                                      
--------------------------|--------------------------|
--------------------------|--------------------------|
--------------------------|--------------------------|
--------------------------|--------------------------|
--7--7--7--7--7--7--7--7--|--2--2--2--2--2--2--2--2--|
--7--7--7--7--7--7--7--7--|--2--2--2--2--2--2--2--2--|

                                                      
--------------------------|--------------------------|
--------------------------|--------------------------|
--------------------------|--------------------------|
--------------------------|--------------------------|
--2--2--2--2--2--2--2--2--|--5--5--5--5--5--5--5--5--|
--2--2--2--2--2--2--2--2--|--5--5--5--5--5--5--5--5--|

                                                                  
--------------------------|-------------------|
--------------------------|-------------------|
--------------------------|-------------------|
--------------------------|-------------------|
--7--7--7--7--7--7--7--7--|--2----------------|
--7--7--7--7--7--7--7--7--|--2----------------|


solo (while singing "there is nothin else")

--------------------------|---------------------|---------------------|
------------12------10----|----8------7----5----|--7------5------0----|
--9--11--9----------------|---------------------|---------------------|
--------------------------|---------------------|---------------------|
--------------------------|---------------------|---------------------|
--------------------------|---------------------|---------------------|


                                                                  
---------------------|---------------------|---------------------|
-----------0----3----|--7------5------0----|-----------0----3----|
----2----------------|---------------------|----2----------------|
---------------------|---------------------|---------------------|
---------------------|---------------------|---------------------|
---------------------|---------------------|---------------------|


                                                                  
---------------------|---------------------|---------------------|
--7------5------0----|-----------0----3----|--7------5------8----|
---------------------|----2----------------|---------------------|
---------------------|---------------------|---------------------|
---------------------|---------------------|---------------------|
---------------------|---------------------|---------------------|


                                                              
----------------------|-------------------|------------------|
----7------5----7--5--|--0----------------|------------------|
----------------------|-------------------|------------------|
----------------------|-------------------|------------------|
----------------------|-------------------|------------------|
----------------------|-------------------|------------------|


                                                                         
-----------------------|------------------------|-----------------------|
---------------7-------|------------------------|---------------7-------|
--7----7--9---------7--|----7--7--7-9---7----7--|--7----7--9---------7--|
-----------------------|------------------------|-----------------------|
-----------------------|------------------------|-----------------------|
-----------------------|------------------------|-----------------------|


                                                              
----------------------|-------------------|
-----------8--7-------|-------------------|
--------7--------9----|--7----------------|
----------------------|-------------------|
----------------------|-------------------|
----------------------|-------------------|


the rest  of the song is already tabbed, just repeat the first parts...


solo (while singing "there is nothin else")

--------------------------|---------------------|---------------------|
------------12------10----|----8------7----5----|--7------5------0----|
--9--11--9----------------|---------------------|---------------------|
--------------------------|---------------------|---------------------|
--------------------------|---------------------|---------------------|
--------------------------|---------------------|---------------------|


                                                                  
---------------------|---------------------|---------------------|
-----------0----3----|--7------5------0----|-----------0----3----|
----2----------------|---------------------|----2----------------|
---------------------|---------------------|---------------------|
---------------------|---------------------|---------------------|
---------------------|---------------------|---------------------|


                                                                  
---------------------|---------------------|---------------------|
--7------5------0----|-----------0----3----|--7------5------8----|
---------------------|----2----------------|---------------------|
---------------------|---------------------|---------------------|
---------------------|---------------------|---------------------|
---------------------|---------------------|---------------------|


                                                              
----------------------|-------------------|------------------|
----7------5----7--5--|--0----------------|------------------|
----------------------|-------------------|------------------|
----------------------|-------------------|------------------|
----------------------|-------------------|------------------|
----------------------|-------------------|------------------|


                                                                         
-----------------------|------------------------|-----------------------|
---------------7-------|------------------------|---------------7-------|
--7----7--9---------7--|----7--7--7-9---7----7--|--7----7--9---------7--|
-----------------------|------------------------|-----------------------|
-----------------------|------------------------|-----------------------|
-----------------------|------------------------|-----------------------|


                                                              
----------------------|-------------------|
-----------8--7-------|-------------------|
--------7--------9----|--7----------------|
----------------------|-------------------|
----------------------|-------------------|
----------------------|-------------------|


the rest  of the song is already tabbed, just repeat the first parts...
Comments