Lifehouse - Hanging By A Moment Chords & Tabs

 

Hanging By A Moment Chords & Tabs

Lifehouse Chords & Tabs

Version: 3 Type: Tab 0 ratings
1 star 2 stars 3 stars 4 stars 5 stars
comments

Hanging By A Moment Tab

Lifehouse - Hanging By A Moment

Intro:

This is the REAL intro to the regular version.  Everybody else has had
it wrong so far especially forgetting the harmonic which is way cool 
(come on guys!).  Watch the slight changes!  It's way more complicated
than it sounds.  I haven't done anything for chords, but at least this 
part is right for everyone.





[ Tab from: http://www.guitartabs.cc/tabs/l/lifehouse/hanging_by_a_moment_tab_ver_3.html ]
Eb|-----------------------------------------------------------------| 
Bb|-----------------------------------------------------------------| 
Gb|-------------------------0-------------------------------0-------| 
Db|-----0-2---0---------0-----4-0-------0-2---0---------0-----4-0---|
Ab|---0-----------0---0---0-------0---0-----------0---0---0-------0-|   
Db|-0-----------0---0---------------0-------0---0---0---------------| 


Eb|-----------------------------------------------------------------| 
Bb|-----------------------------------------------------------------| 
Gb|-------------------------0-------------------------------0-------| 
Db|-----0-2---0---------------4-0-------0-2---0-----0---0-----4-0---|
Ab|---0-----------0---0---0-------0---0-----------0---0---0-------0-|   
Db|-0-------0---0---0---0-----------0-------0---0-------------------| 



Eb|-----------------------------------------------------------------| 
Bb|-----------------------------------------------------------------| 
Gb|-------------------------0---------------------------------------| 
Db|-----0-2---0---------0-----4-0-------0-2---0-----7sustained---| 


Tabbed by Graham Shea
telagraham@aol.com
Comments