Lifehouse - Hanging By A Moment Chords & Tabs

 

Hanging By A Moment Chords & Tabs

Lifehouse Chords & Tabs

Version: 12 Type: Tab 0 ratings
1 star 2 stars 3 stars 4 stars 5 stars
comments

Hanging By A Moment Tab

   
Tuning: down half-step & drop D 

Intro 
e-------------------------------------- 
B-------------------------------------- 
G-------------------------------------- 
D-----0-2-0--------0---5-4-0----------- 
A---0------------0--0------------------ 
E-0--------0-0------------------------- 

e-------------------------------------- 
B-------------------------------------- 
G-------------------------------------- 
D-----0-2-0--------0---5-4-0----------- 
A---0------------0--0------------------ 
E-0--------0-0------------------------- 


Verse1= 
e-------------------------------------- 
B-------------------------------------- 
G-------------------------------------- 
D-----0-2-0--------0---5-4-0----------- 
A---0------------0--0------------------ 
E-0--------0-0------------------------- 
"Desperate For Changing..." 

e-------------------------------------- 
B-------------------------------------- 
G-------------------------------------- 
D-----0-2-0--------0---5-4-0----------- 
A---0------------0--0------------------ 
E-0--------0-0------------------------- 
"Starving For truth..." 

e-------------------------------------- 
B-------------------------------------- 
G-------------------------------------- 
D-----0-2-0--------0---5-4-0---0-2-0~~- 
A---0------------0--0---------0-------- 
E-0--------0-0---------------0--------- 
"i'm closer to where i started ___ to chasing after You." 


1st chorus 
(rhythm guitar) (x3) 

e-------------------------------------- 
B-------------------------------------- 
G-----4---4----------0-2-0------------- 
D---4---4---4------0-------0----------- 
A-2-----------2--0-----------0--------- 

1st chorus 
(lead) (x2) 

e-----2------------2---3-2------------- 
B-3-5---3-5-3--3-5---3-----5-3--------- 
G-------------------------------------- 

"I'm falling even more in love with You, 
Letting go of all i've held on to. 
I'm standing here until You make me move, 
I'm Hangin by a moment here with You!" 

Intro (x2) 

Verse2= 

e-------------------------------------- 
B-------------------------------------- 
G-------------------------------------- 
D-----0-2-0--------0---5-4-0----------- 
A---0------------0--0------------------ 
E-0--------0-0------------------------- 
"Forgetting all I'm lacking..." 
[ Tab from: http://www.guitartabs.cc/tabs/l/lifehouse/hanging_by_a_moment_tab_ver_12.html ]
e-------------------------------------- 
B-------------------------------------- 
G-------------------------------------- 
D-----0-2-0--------0---5-4-0----------- 
A---0------------0--0------------------ 
E-0--------0-0------------------------- 
"Completely Incomplete..." 

e-------------------------------------- 
B-------------------------------------- 
G-------------------------------------- 
D-----0-2-0--------0---5-4-0---0-2-0~~- 
A---0------------0--0---------0-------- 
E-0--------0-0---------------0--------- 
"I'll take your invitation, You take all of Me! Now..." 

2nd chorus 
(lead) 
e-----2------------2---3-2------------- 
B-3-5---3-5-3--3-5---3-----5-3--------- 
G-------------------------------------- 
D-------------------------------------- 
A-------------------------------------- 
E-------------------------------------- 
2nd chorus 
(rhythm guitar)

B5 D5 
I'm falling even more in love with You! 
B5 G5 
Letting go of all I've held on to. 
B5 D5 
I'm standing here until You make me move! 
B5 G5 
I'm Hanging by a moment here with You!! 
B5 D5 
I'm living for the only thing I know, 
B5 G5 
I'm running and not quite sure where to go. 
B5 D5 
And I don't know what I'm diving in to, 
B5 G5 
Just Hanging By a Moment Here with You!! 

Bridge 

e-------------| 
B-------------| 
G-------------|  (x2) 
D-------------| 
A-----5-----5-| 
E-4-5---4-5---| 
"There's nothing else to lose"
 
e--------------| 
b--------------| 
g--------------| (x2) 
d-----7-----7--| 
a-4-5---4-5----| 
E--------------| 
"There's Nothing else to find" 

e-------------| 
B-------------| 
G-------------|  (x2) 
D-------------| 
A-----5-----5-| 
E-4-5---4-5---| 
"There's nothing in the world... that can change my mind" 

Rhythm during solo (x4) 

e--------------------------------------- 
B--------------------------------------- 
G--------------------------------------- 
D-55-555-77-777-99-9999-99-------------- 
A-55-555-77-777-99-9999-99-------------- 
E-55-555-77-777-99-9999-99-------------- 
"there is nothing else" (x3) 

Rhythm Gtr. -  Intro (x2) 
lead Gtr. -  Chorus lead (x1) 

Verse1, 2nd Chorus + 2nd Chorus lead guitar. 
Vocals: "Hangin by a moment" (x3) & "hanging by a moment here with You..." 



=^_^=
feel free to talk to me 'bout it ~~>roze_angel@hotmail.com
                                                             -sleepwalker-
Comments