Lifehouse - Everything Chords & Tabs

 

Everything Chords & Tabs

Lifehouse Chords & Tabs

Version: 1 Type: Tab 1 rating
1 star 2 stars 3 stars 4 stars 5 stars
comments

Everything Tab

   
##################################################################################
# This file is the author's own work and represents their interpretation of the  #
# song. You may only use this file for private study, scholarship, or research.  #
##################################################################################


Artist: Lifehouse                                        
Album: No Name Face
Transcribed by: Bluezbabe   (?s or comments- email me: sacaradeus@hotmail.com)
Tuning: Standard (EAGDBE)

(This tab is the culmination of hours of study, from a multitude of people.  It should be about as accurate as it gets.)   

 E5        Asus2    C#m7     Bsus4    Asus2type2

EADGBA    EADGBA   EADGBA    EADGBA     EADGBA 
079900    x07900   x46600    x24400     x02200



Intro & Verses:
Fig. A1
   C#m                           Aadd9                         C#m                        Aadd9         
E  -------------0----------------------------0-------------------------0------------------------------0------------------------------------
B  ----------5-----5--4-----------2-------2----------2--------------5------5--4-----------2-----2----------2-------------------------------
G  -------6---------------6--4--------4---------4-------4-------6-----------------6--4-------4---------4-------4---------------------------
D  ----6-------------------------------------------------------6---------------------------------------------------------------------------
A  ----------------------------------------------------------------------------------------------------------------------------------------
E  ----------------------------------------------------------------------------------------------------------------------------------------
       1  &  2  &  3  &   4  &  | /   /  /  /   /   /   /   |     same                  |   same                         |
 
Fig. A2
      C#m                   Aadd9                           C#m                                  Aadd9                (back to top)     
E  -----------9---------------------------0------------------------------------------------------0-----------------------------------------
B  ----------------------------------------------0------------------------------------------------------0----------------------------------
G  ----9------------9--11---13----------------------13-slide-9----9------9--8--6--4---------------------------4---slide---(6)--------------
D  ----------------------------------------------------------------------------------------------------------------------------------------
A  ----------------------------------------------------------------------------------------------------------------------------------------
E  ----------------------------------------------------------------------------------------------------------------------------------------
      1       2     3  &     & |         2        3  4  |    1    2      3  &  4  &   |          2      3     4  |

Play Both Figs.  x 2  
Play Fig. A1 once
Play Fig. A1 x4

Chorus:
Fig. B1* guitar 1
            E           G#m  Asus2                             C#m7               B   Asus2
E  -------------0----0-------------------0------------0---------------0------0-----------------------0-------------------------------------
B  ---------0-----0-------------------0----0--0---------0---------0-----0-----------------------0------0-------0---------------------------
G  -----9----------------8----9---------------------------------9-----------------8---4----------------------4-----0-----------------------
D  ----------------------------------------------------------------------------------------------------------------------------------------
A  ----------------------------------------------------------------------------------------------------------------------------------------
E  ----------------------------------------------------------------------------------------------------------------------------------------
        1   &   2 &  3  &    &  |      &  2  & 3      4  &   |   1  &  2  &  3    &    &     |  &    2  &    3  &   4    |


Fig. B2**guitar 2
[ Tab from: http://www.guitartabs.cc/tabs/l/lifehouse/everything_tab.html ]
E  -------------0--0--0-------------------0-------------0----------------0--0--0-----------------------0---------------0-------------------
B  -------------0--0--0---4------------0-----0------0------0-------------0--0--0----4---------------0-----0--------0--------0--------------
G  -----------------------4---------------------2---------------------4-------------4--------------------------2---------------------------
D  ----------------------------------------------------------------------------------------------------------------------------------------
A  ----------2-----------------0-----------------------------------4----------------2----0-------------------------------------------------
E  -------0---------------4----------------------------------------------------------------------------------------------------------------
          1  &  2  & 3    &    &  |    &  2  &  3   &   4  &   |   1  &  2  &  3    &     &    |    &  2   &   3   &    4    &  |

Fig. B1* (altern.)
        E                G#m  Asus2                                  C#m7       B    Asus2
E  -------------0----0-------------------0-----------0---------------0------0----------------------------------------------------------
B  ---------0-----0-------------------0----0--0---------0---------0-----0-----------------------------------------------------------
G  -----9----------------8----9---------------------------------9---------------8---4-hold-----------------------------------------
D  --------------------------------------------------------------------------------------------------------------------------------------
A  ----------------------------------------------------------------------------------------------------------------------------------------
E  ----------------------------------------------------------------------------------------------------------------------------------------
        1   &   2 &  3   &    &  |    &  2  & 3      4  &   |   1 &  2  &  3    &    &     |                                            |

Fig. B2** (altern.)

E  -------------0--0--0-------------------0-------------0----------------0--0--0---------0--hold-------------------------------------
B  -------------0--0--0--4------------0-----0------0------0-------------0--0--0---4----0--hold------------------------------------
G  -----------------------4-----------------------2-------------------4---------------4-------------------------------------------------
D  ----------------------------------------------------------------------------------------------------------------------------------------
A  ----------2-----------------0-----------------------------------4------------------2----0--hold-------------------------------------
E  -------0---------------4---------------------------------------------------------------------------------------------------------------
              1  &  2  & 3  &    &  |      &  2  &  3  &   4  &   |   1  &  2  &  3    &     &    |                                           |

Bridge
    C#m7                          Asus2                        E/G#                        B7sus4  
E  -------------0----0--0--0--0------------0----0--0--0--0------------0----0--0--0--0------------0-----0--0--0--0----------------
B  ---------0--------0--0--0--0---------0-------0--0--0--0---------0-------0--0--0--0---------0--------0--0--0--0----------------
G  -----1------------1--1--1--1-----2-----------2--2--2--2-----4-----------4--4--4--4------2-----------2--2--2--2---------------
D  ---------------------------------------------------------------------------------------------------------------------------------------
A  ---------------------------------------------------------------------------------------------------------------------------------------
E  ----------------------------------------------------------------------------------------------------------------------------------------
         1   &   2   3  &  4   &  | 1   &   2   3  &  4  &  |  1   &   2   3  &  4  &  |   1  &  2     3  &  4   &  |                                                 

Play Bridge x3

Chorus Jam:  (the fun part!  Played in straight 8th notes - 1 & 2 & 3 & 4 &- or 8 rhythm slashes per bar)

E5                Asus2              C#m7          Bsus4    Asus2type2
/ / / / / / / / |  / / / / / / / / |  / / / / /    / /      / | / / / / / / / /
                                      (play as straight 8ths)

Outro:
Play Fig. B2*&**  x1
Play Fig. B2*&** (altern.) x1
Comments