Lifehouse - Come Back Down Chords & Tabs

 

Come Back Down Chords & Tabs

Lifehouse Chords & Tabs

Version: 3 Type: Tab 0 ratings
1 star 2 stars 3 stars 4 stars 5 stars
comments

Come Back Down Tab

   
Lifehouse - Come Back Down
 step down

Intro and verse - D - G (picking)- Just play around with these chords something like this.


Guitar 1 - put some effects or something with it and play on the neck pickup I find 
best. Only play during intro, not verse.
e-|---14~--------------------14-----------|
B-|----------17/12~~/-15----------17/12~~-|
G-|---------------------------------------| x2
D-|---------------------------------------|
A-|---------------------------------------|
E-|---------------------------------------|

Guitar 2
e-|----------------------------------0----|
B-|------3------3------3------3-----------|
G-|----0------0------0------0------0------|
D-|--4------4------4------4------4--------|
A-|---------------------------------------|
E-|---------------------------------------|

e-|----------------------------------0----|
B-|------3------3------3------3-----------|
G-|----0------0------0------0------0------|
D-|--0------0------0------0------0--------|
A-|---------------------------------------|
E-|---------------------------------------|

Pre-Chorus

Chords are Em - D - G - A
[ Tab from: http://www.guitartabs.cc/tabs/l/lifehouse/come_back_down_tab_ver_3.html ]
Chorus
Guitar 2 chords-   D - G - Em - G

Guitar 1
e-|----------10------|
B-|----7h8p7---------|
G-|------------------| repeat
D-|------------------|
A-|------------------|
E-|------------------|

Bridge
Both Guitars play  A - Em - A - Em

Solo
e-|----------------------------------|
B-|----7h8p7---10------7h8p7---3~~---|
G-|----------------------------------| x3
D-|----------------------------------|
A-|----------------------------------|
E-|----------------------------------|

e-|--------------------------------------------------|
B-|--0--2--3--5---0--2--3--5--0--2--3--5--7--8--10---|
G-|--------------------------------------------------|
D-|--------------------------------------------------|
A-|--------------------------------------------------|
E-|--------------------------------------------------|

Chorus just acoustic guitar plays chorus chords

D - G - Em - G

The second part of the chorus guitar 1 kicks in playing the chords.

That's pretty much it. If you find any corrections then send me an email and I'll try to 
it. henson_09@hotmail.com.
Cheers. alex.
Comments