Lifehouse - Blind Chords & Tabs

 

Blind Chords & Tabs

Lifehouse Chords & Tabs

Version: 2 Type: Tab 0 ratings
1 star 2 stars 3 stars 4 stars 5 stars
comments

Blind Tab

   
Lifehouse "Blind"

Transcribed by: Daniel Lopez
Email: danlopezv@gmail.com

Tunning: Drop D

Intro:
   A             F#m       D       E
E|-----------------------------------------|
B|-----------------------------------------|
G|------------------------11-9-11--2-1-2-1-|
D|-9-7-9-11-9-7--6-4-6-7---x-x-x---2-2-2-2-|
A|-7-7-7--7-7-7--4-4-4-4---9-7-9---x-x-x-x-|
D|-7-7-7--7-7-7--4-4-4-4---0-0-0---2-2-2-2-| x2


A                 F#m
I was young but I wasn't naive
D
I watched helpless
       E  
As you turned around to leave
    A                       F#m
And still I have the pain I have to carry
  D
A past so deep
     E                              Riff
That even you could not bury if you tried

Riff:

E|-------------------|
B|-------------------|
G|-11---16---13---11-|
D|--x----x----x----x-|
A|--9---14---11----9-|
D|--0----0----0----0-|


[CHORUS]

A              E
After all this time
D 
I never thought we'd be here
E
never thought we'd be here
A                        E
when my love for you was blind
      D
But I couldn't make you see it
E
Couldn't make you see it
    F#m          D
That I loved you more
            A    E 
Than you'll ever know
    F#m        D
And part of me died
      A    E   Riff
When I let you go.

Riff:

E|--------------|
B|--------------|
G|-11---16---13-|
D|--x----x----x-|
A|--9---14---11-|
D|--0----0----0-|
[ Tab from: http://www.guitartabs.cc/tabs/l/lifehouse/blind_tab_ver_2.html ]
        A
I would fall asleep
        F#m
Only in hopes of dreaming
     D                   E
That everything would be like is was before
    A                             F#m
But nights like this it seems are slowly fleeting
     D              E                        Riff
They disappear as reality is crashing to the floor.

Riff:

E|--------------|
B|--------------|
G|-11---16---13-|
D|--x----x----x-|
A|--9---14---11-|
D|--0----0----0-|


[CHORUS]

A              E
After all this time
D 
I never thought we'd be here
E
never thought we'd be here
A                        E
when my love for you was blind
      D
But I couldn't make you see it
E
Couldn't make you see it
    F#m          D
That I loved you more
            A    E 
Than you'll ever know
    F#m        D
And part of me died
      A    E   Solo
When I let you go.

Solo:

E|--------------------------------------------------------------|
B|-5-7--------------5-7------------------5-7--------------------|
G|-----6--6-7-6---------6h7-6--6-7-6---------6--6p4-4-2-1----13-|
D|--------------9-7------------------9-7------------------2-----|
E|--------------------------------------------------------------|
D|--------------------------------------------------------------|


[CHORUS]

A              E
After all this time
          D 
Would you ever wanna leave it
      E
Maybe you could not believe it
        A                E
That my love for you was blind
      D
But I couldn't make you see it
E
Couldn't make you see it
    F#m          D
That I loved you more
            A    E 
Than you'll ever know
    F#m        D
And part of me died
      A        E
When I let you go.
   F#m          D
And I loved you more
            A    E 
Than you'll ever know
    F#m        D
And part of me died
      A    E   Riff
When I let you go.

Riff:

E|-------------------|
B|-------------------|
G|-11---16---13---11-|
D|--x----x----x----x-|
A|--9---14---11----9-|
D|--0----0----0----0-|
Comments