Life Of Agony - Words And Music Chords & Tabs

 

Words And Music Chords & Tabs

Life Of Agony Chords & Tabs

Version: 1 Type: Tab 0 ratings
1 star 2 stars 3 stars 4 stars 5 stars
comments

Words And Music Tab

Words and Music

BY LIFE OF AGONY
transcribed by Christian Reindel(creindel@gmx.de)

TUNE DOWN ONE WHOLE STEP:

    INTRO / Outro                  
D:|---------------------------------|----------------------------|
A:|---------------------------------|----------------------------|
F:|---------------------------------|----------------------------|
C:|--------------3------------------|-----------3-----2--(2)-----|
G:|--2--2--3--4--1--4--3--2--(2)----|--2--3--4--1--4--0--(0)-----|
D:|--0--0--1--2-----2--1--0--(0)----|--0--1--2-----2-------------|


Verse Riff 1 (play twice and fast)         
D:|---------------------------------|---------------------------------|
A:|---------------------------------|---------------------------------|
F:|---------------------------------|---------------------------------|
C:|---------------------------------|---------------------------------|
G:|--8/7-7-7-7-7-7---8/7-7-7-7-7-7--|-3-2-2-2-2-2-2----3-2-3-2-3-2-3--|
D:|--6/5-5-5-5-5-5---6/5-5-5-5-5-5--|-1-0-0-0-0-0-0----1-0-1-0-1-0-1--|

[ Tab from: http://www.guitartabs.cc/tabs/l/life_of_agony/words_and_music_tab.html ]
Verse Riff 2                            this Part slowlier 
D:|---------------------------------|---------------------------------|
A:|---------------------------------|---------------------------------|
F:|---------------------------------|---------------------------------|
C:|---------------------------------|---------------------------------|
G:|--8/7-7-7-7-7-7---8/7-7-7-7-7-7--|-3-2--2--2--2----3-2-2--2--2-----|
D:|--6/5-5-5-5-5-5---6/5-5-5-5-5-5--|-1-0--0--0--0----1-0-0--0--0-----|

Chorus 

   words   and  music                               
D:|-------------------------------|---------------------------------|
A:|-------------------------------|---------------------------------|
F:|-------------------------------|---------------------------------|
C:|-------------------------------|---------------------------------|
G:|-2---(2)-----3----(3)----------|--8/7-7-7-7----8/7-7-7-7-7-------|
D:|-0---(0)-----1----(1)----------|--6/5-5-5-5----6/5-5-5-5-5-------|


Guitar Solo (play 4 times)
D:|---------------------------------|---------------------------------|
A:|---------------------------------|---------------------------------|
F:|---------------------------------|---------------------------------|
C:|---------------------------------|--7/6-6-6-6-6-6---7/6-6-6-6-6-6--|
G:|--5/4-4-4-4-4-4---5/4-4-4-4-4----|--5/4-4-4-4-4-4---5/4-4-4-4-4-4--|
D:|--3/2-2-2-2-2-2---3/2-2-2-2-2----|---------------------------------|

back to Chorus than: 

     this part 4 times slowly
D:|-------------------------------|-------------------------|
A:|-------------------------------|-------------------------|
F:|-------------------------------|-------------------------|
C:|-------------------------------|-------------------------|
G:|-2--(2)-----9---(9)------------|---2--(2)----------------|
D:|-0--(0)-----7---(7)------------|---0--(0)----------------|

back to Intro  Riff

End.
Comments