Life Of Agony - Ugly Chords & Tabs

 

Ugly Chords & Tabs

Life Of Agony Chords & Tabs

Version: 1 Type: Tab 0 ratings
1 star 2 stars 3 stars 4 stars 5 stars
comments

Ugly Tab

Ugly by Life of Agony
Tune down to D
Transcribed by James Rausse, 1/1/98,
dekalbave@hotmail.com
http://www.geocities.com/CollegePark/5924


 over bass  Riff 1
D-------------|--------------------------------------------|
A-------------|--------------------------------------------|
F-------------|-----------------------7-7-7-7-7----7---7-7-|
C-------------|-7-7-7-7-7--5-5-5-5-5--7-7-7-7-7----7---7-7-|
G-5~~~~--7~~~~|-7-7-7-7-7--5-5-5-5-5--5-5-5-5-5----5---5-5-|
D-------------|-5-5-5-5-5--3-3-3-3-3-------------0---0-----|
	        PM---->    PM---->    PM---->    PM  PM

 Riff 2		Riff2a	Riff 3
D-------------|--------|----------------|----|---|
A-------------|--------|----------------|----|---|
F-------------|--------|----------------|----|---|
C-7\5-5-5/7-8-|-5/7-2--|----------------|----|---|
G-7\5-5-5/7-8-|-5/7-2--|----------------|----|-5-|
D-5\3-3-3/5-6-|-3/5-0--|-3^5-3-0--0-3^5-|0-0-|---|


 Riff 3A
D-------|--------------|----------------|
A-------|--------------|----------------|
F-------|--------------|--------------7-|
C-------|--------------|-5--5-5-5-5-5-7-|
G-------|--------------|-5--5-5-5-5-5-5-|
D-3^5-3-|-0--0-3^5-0-0-|-3--3-3-3-3-3---|
			    PM------>
[ Tab from: http://www.guitartabs.cc/tabs/l/life_of_agony/ugly_tab.html ]
 Riff 4				Riff 5
D------------------------||---------------------------------
A------------------------||---------------------------------
F----hs------------------||---------------------------------
C----)-----4-------------||-7-7-7-7-7-7-7-7-7-7-7-7-7-7-7-7-
G----5---5---5-----5-5^7-||-7-7-7-7-7-7-7-7-7-7-7-7-7-7-7-7-
D-0-------------0--------||-5-5-5-5-5-5-5-5-5-5-5-5-5-5-5-5-
  "Noone understands me"   PM---------------------------->


				   Riff 5A	Riff 5B
D---------------------------------|---------|----------------|
A---------------------------------|---------|-8^10-10-10-etc.|
F-5-5-5-5-5-5-5-5-7-7-------------|-6^7-6---|----------------|
C-5-5-5-5-5-5-5-5-7-7-------------|-------7-|----------------|
G-3-3-3-3-3-3-3-3-5-5-5-5-5-5-5-5-|---------|----------------|
D---------------------------------|---------|----------------|
  PM---------------->              Play w/wah over Riff 5

 Riff 6			 Riff 7 	     last notes
D-----------------------|-----------|-------|-------|
A-----------------------|-----------|-------|-------|
F---------5-5-5---7-7-7-|-7---7---6-|-7^9-9-|-------|
C-7-7-7---5-5-5---7-7-7-|-----------|-------|-------|
G-7-7-7---3-3-3---5-5-5-|-----------|-------|-------|
D-5-5-5-----------------|---0---0---|-------|-3^5-0-|

Rough Estimate of Song Structure
(I hate doing it like this)

Riff1 4X
Riff2 3X
Riff2a 1X
Riff3 2X
Riff3a 4X
Riff4 4X
Riff3 2X
Riff3a 4X
Riff5 4X
Riff5 w/5a 4X
Riff5 w/5b 4X
Riff5 1X
Riff6 2X
Riff1 4X
Riff4 4X
Riff7 until end

As I said this is a rough estimate, I hate doing it like
this.  If there's something wrong, write me.  Otherwise
you have a basic idea of the song.  Thanks.

James
Comments