Life Of Agony - The Stain Remains Chords & Tabs

 

The Stain Remains Chords & Tabs

Life Of Agony Chords & Tabs

Version: 2 Type: Tab 0 ratings
1 star 2 stars 3 stars 4 stars 5 stars
comments

The Stain Remains Tab

The Stain Remains - Life of Agony
By E. Loegel
aicaxeman@slayerized.com

Track 1 - Rhythm Guitar 1
Track 2 - Bass
Track 3 - Rhythm Guitar 2



   Intro (Bass)                          Vocals enter
D  :-----------------|-----------------*1|-----------------|
A  :-----------------|-----------------*||-----------------|
F  :-----------------|----------------- ||-----------------|
C  :-----------------|----------------- ||-----------------|
G  :-----------------|----------------- ||-----------------|
D  :-----------------|----------------- ||-----------------|


F  :-----------------|-----------------*1|-----------------|
C  :--7---7-----7----|--7---7-----7---- ||--7---7-----7----|
G  :5---5-----5---5/-|8---8-----8---8/- ||5---5-----5---5/-|
D  :-----------------|----------------- ||-----------------|

D  :-----------------|-----------------*1|-----------------|
A  :-----------------|-----------------*||-----------------|
F  :-----------------|----------------- ||-----------------|
C  :-----------------|----------------- ||-----------------|
G  :-----------------|----------------- ||-----------------|
D  :-----------------|----------------- ||-----------------|

============================================================================
=


D  :----------------*1|-----------------|----------------|
A  :----------------*||-----------------|----------------|
F  :---------------- ||-----------------|----------------|
C  :---------------- ||-----------------|----------------|
G  :---------------- ||-----------------|----------------|
D  :---------------- ||-----------------|----------------|


F  :----------------*1|-----------------|----------------|
C  :--7---7-----7--- ||--7---7-----7----|--7---7-----7---|
G  :8---8-----8---8- ||5---5-----5---5/-|8---8-----8---8-|
D  :---------------- ||-----------------|----------------|

D  :----------------*1|-----------------|----------------|
A  :----------------*||-----------------|----------------|
F  :---------------- ||-----------------|----------------|
C  :---------------- ||-----------------|----------------|
G  :---------------- ||-----------------|----------------|
D  :---------------- ||-----------------|----------------|

============================================================================
=


D  :-----------------|----------------|-----------------|
A  :-----------------|----------------|-----------------|
F  :-----------------|----------------|-----------------|
C  :-----------------|----------------|7----------------|
G  :-----------------|----------------|5----------------|
D  :-----------------|----------------|-----------------|


F  :-----------------|----------------|-----------------|
C  :--7---7-----7----|--7---7-----7---|------------7----|
G  :5---5-----5---5/-|8---8-----8---8-|5-------------5/-|
D  :-----------------|----------------|-----------------|

D  :-----------------|----------------|-----------------|
A  :-----------------|----------------|-----------------|
F  :-----------------|----------------|-----------------|
C  :-----------------|----------------|7----------------|
G  :-----------------|----------------|5----------------|
D  :-----------------|----------------|-----------------|

============================================================================
=


D  :------------------|-----------------|-----------------|
A  :------------------|-----------------|-----------------|
F  :------------------|-----------------|-----------------|
C  :10----------------|7----------------|10---------------|
G  :-8----------------|5----------------|-8---------------|
D  :------------------|-----------------|-----------------|


F  :------------------|-----------------|-----------------|
C  :-------------7----|------------7----|-----------------|
G  :-8-------------8/-|5-------------5/-|-8---------------|
D  :------------------|-----------------|-----------------|

D  :------------------|-----------------|-----------------|
A  :------------------|-----------------|-----------------|
F  :------------------|-----------------|-----------------|
C  :10----------------|7----------------|10---------------|
G  :-8----------------|5----------------|-8---------------|
D  :------------------|-----------------|-----------------|

============================================================================
=


D  :-------------------|-------------------|-------------------|
A  :-------------------|-------------------|-------------------|
F  :-------------------|-------------------|-------------------|
C  :7-10-7-10---7-10-9-|7-10-7-10---7-10-9-|7-10-7-10---7-10-9-|
G  :5--8-5--8---5--8-7-|5--8-5--8---5--8-7-|5--8-5--8---5--8-7-|
D  :-------------------|-------------------|-------------------|


F  :-------------------|-------------------|-------------------|
C  :-------------------|-------------------|-------------------|
G  :5--8-5--8---5--8-7-|5--8-5--8---5--8-7-|5--8-5--8---5--8-7-|
D  :-------------------|-------------------|-------------------|

D  :-------------------|-------------------|-------------------|
A  :-------------------|-------------------|-------------------|
F  :-------------------|-------------------|-------------------|
C  :7-10-7-10---7-10-9-|7-10-7-10---7-10-9-|7-10-7-10---7-10-9-|
G  :5--8-5--8---5--8-7-|5--8-5--8---5--8-7-|5--8-5--8---5--8-7-|
D  :-------------------|-------------------|-------------------|

============================================================================
=

                     " Everyday"
D  :-------------------|----------------|--------------------|
A  :-------------------|----------------|--------------------|
F  :-------------------|----------------|--------------------|
C  :7-10-7-10---7-10-9-|----4-------4---|----4-----------4---|
G  :5--8-5--8---5--8-7-|2-2-2-2-2-2-2---|2-2-2-2-2-2-2-2-2---|
D  :-------------------|0-0---0-0-0-----|0-0---0-0-0-0-0-----|
                       Heavy PM

F  :-------------------|----------------|--------------------|
C  :-------------------|----------------|--------------------|
G  :5--8-5--8---5--8-7-|----2-------2---|----2-----------2---|
D  :-------------------|0-0---0-0-0-----|0-0---0-0-0-0-0-----|

D  :-------------------|----------------|--------------------|
A  :-------------------|----------------|--------------------|
F  :-------------------|----------------|--------------------|
C  :7-10-7-10---7-10-9-|----4-------4---|----4-----------4---|
G  :5--8-5--8---5--8-7-|2-2-2-2-2-2-2---|2-2-2-2-2-2-2-2-2---|
D  :-------------------|0-0---0-0-0-----|0-0---0-0-0-0-0-----|

============================================================================
=


D  :----------------|--------------------|-------------------|
A  :----------------|--------------------|-------------------|
F  :----------------|--------------------|-------------------|
C  :----4-------4---|----4-----------4---|7-10-7-10---7-10-9-|
G  :2-2-2-2-2-2-2---|2-2-2-2-2-2-2-2-2---|5--8-5--8---5--8-7-|
D  :0-0---0-0-0-----|0-0---0-0-0-0-0-----|-------------------|


F  :----------------|--------------------|-------------------|
C  :----------------|--------------------|-------------------|
G  :----2-------2---|----2-----------2---|5--8-5--8---5--8-7-|
D  :0-0---0-0-0-----|0-0---0-0-0-0-0-----|-------------------|

D  :----------------|--------------------|-------------------|
A  :----------------|--------------------|-------------------|
F  :----------------|--------------------|-------------------|
C  :----4-------4---|----4-----------4---|7-10-7-10---7-10-9-|
G  :2-2-2-2-2-2-2---|2-2-2-2-2-2-2-2-2---|5--8-5--8---5--8-7-|
D  :0-0---0-0-0-----|0-0---0-0-0-0-0-----|-------------------|

============================================================================
=


D  :-------------------|-------------------|-------------------|
A  :-------------------|-------------------|-------------------|
F  :-------------------|-------------------|-------------------|
C  :7-10-7-10---7-10-9-|7-10-7-10---7-10-9-|7-10-7-10---7-10-9-|
G  :5--8-5--8---5--8-7-|5--8-5--8---5--8-7-|5--8-5--8---5--8-7-|
D  :-------------------|-------------------|-------------------|


F  :-------------------|-------------------|-------------------|
C  :-------------------|-------------------|-------------------|
G  :5--8-5--8---5--8-7-|5--8-5--8---5--8-7-|5--8-5--8---5--8-7-|
D  :-------------------|-------------------|-------------------|

D  :-------------------|-------------------|-------------------|
A  :-------------------|-------------------|-------------------|
F  :-------------------|-------------------|-------------------|
C  :7-10-7-10---7-10-9-|7-10-7-10---7-10-9-|7-10-7-10---7-10-9-|
G  :5--8-5--8---5--8-7-|5--8-5--8---5--8-7-|5--8-5--8---5--8-7-|
D  :-------------------|-------------------|-------------------|

============================================================================
=


D  :----------------|----------------|----------------|-----------------|
A  :----------------|----------------|----------------|-----------------|
F  :----------------|----------------|----------------|-----------------|
C  :----------------|--------7-------|5-5-5-5-5-5-5-5-|5-5-5-5--7---5---|
G  :7-7-7-7-7-7-7-7-|7-7-7-7-5-------|3-3-3-3-3-3-3-3-|3-3-3-3--5---3---|
D  :5-5-5-5-5-5-5-5-|5-5-5-5---------|----------------|-----------------|


F  :----------------|----------------|----------------|-----------------|
C  :----------------|----------------|----------------|-----------------|
G  :----------------|----------------|----------------|-----------------|
D  :5-*-------------|----------------|8-*-------------|--------10---8---|

D  :----------------|----------------|----------------|-----------------|
A  :----------------|----------------|----------------|-----------------|
F  :----------------|----------------|----------------|-----------------|
C  :----------------|----------------|5-*-------------|---------7---5---|
G  :7-*-------------|----------------|3-*-------------|---------5---3---|
D  :5-*-------------|----------------|----------------|-----------------|

============================================================================
=


D  :----------------|----------------|----------------|-----------------|
A  :----------------|----------------|----------------|-----------------|
F  :----------------|----------------|----------------|-----------------|
C  :----------------|--------7-------|5---------------|---------7---5---|
G  :7-7-7-7-7-7-7-7-|7-7-7-7-5-------|3---------------|---------5---3---|
D  :5-5-5-5-5-5-5-5-|5-5-5-5---------|----------------|-----------------|


F  :----------------|----------------|----------------|-----------------|
C  :----------------|----------------|----------------|-----------------|
G  :----------------|----------------|----------------|-----------------|
D  :5-*-------------|----------------|8---------------|--------10---8---|

D  :----------------|----------------|----------------|-----------------|
A  :----------------|----------------|----------------|-----------------|
F  :----------------|----------------|----------------|-----------------|
C  :----------------|----------------|5---------------|---------7---5---|
G  :7-*-------------|----------------|3---------------|---------5---3---|
D  :5-*-------------|----------------|----------------|-----------------|

============================================================================
=


D  :|*----------------|--------------------|----------------|
A  :|*----------------|--------------------|----------------|
F  :| ----------------|--------------------|----------------|
C  :| ----------------|---------7--7--7--7-|5-5-5-5-5-5-5-5-|
G  :| 7-7-7-7-7-7-7-7-|7-7-7-7--5--5--5--5-|3-3-3-3-3-3-3-3-|
D  :| 5-5-5-5-5-5-5-5-|5-5-5-5-------------|----------------|


F  :|*----------------|--------------------|----------------|
C  :| ----------------|--------------------|----------------|
G  :| ----------------|--------------------|----------------|
D  :| 5-5-5-5-5-5-5-5-|5-5-5-5-10-10-10-10-|8-8-8-8-8-8-8-8-|

D  :|*----------------|--------------------|----------------|
A  :|*----------------|--------------------|----------------|
F  :| ----------------|--------------------|----------------|
C  :| ----------------|---------7--7--7--7-|5-5-5-5-5-5-5-5-|
G  :| 7-7-7-7-7-7-7-7-|7-7-7-7--5--5--5--5-|3-3-3-3-3-3-3-3-|
D  :| 5-5-5-5-5-5-5-5-|5-5-5-5-------------|----------------|

============================================================================
=


D  :------------------*2||*----------------|--------------------|
A  :------------------*|||*----------------|--------------------|
F  :------------------ ||| ----------------|--------------------|
C  :5-5-5-5--7--7-5-5- ||| ----------------|---------7--7--7--7-|
G  :3-3-3-3--5--5-3-3- ||| 7-7-7-7-7-7-7-7-|7-7-7-7--5--5--5--5-|
D  :------------------ ||| 5-5-5-5-5-5-5-5-|5-5-5-5-------------|


F  :------------------*2||*----------------|--------------------|
C  :------------------ ||| ----------------|--------------------|
G  :------------------ ||| ----------------|--------------------|
D  :8-8-8-8-10-10-8-8- ||| 5-5-5-5-5-5-5-5-|5-5-5-5-10-10-10-10-|

D  :------------------*2||*----------------|--------------------|
A  :------------------*|||*----------------|--------------------|
F  :------------------ ||| ----------------|--------------------|
C  :5-5-5-5--7--7-5-5- ||| ----------------|---------7--7--7--7-|
G  :3-3-3-3--5--5-3-3- ||| 7-7-7-7-7-7-7-7-|7-7-7-7--5--5--5--5-|
D  :------------------ ||| 5-5-5-5-5-5-5-5-|5-5-5-5-------------|

============================================================================
=

                                    " Everyday"
D  :----------------|-----------------|----------------|
A  :----------------|-----------------|----------------|
F  :----------------|-----------------|----------------|
C  :5-5-5-5-5-5-5-5-|5-5-5-5--7---5---|----4-------4---|
G  :3-3-3-3-3-3-3-3-|3-3-3-3--5---3---|2-2-2-2-2-2-2---|
D  :----------------|-----------------|0-0---0-0-0-----|
                                      Heavy PM

F  :----------------|-----------------|----------------|
C  :----------------|-----------------|----------------|
G  :----------------|-----------------|----2-------2---|
D  :8-8-8-8-8-8-8-8-|8-8-8-8-10---8---|0-0---0-0-0-----|

D  :----------------|-----------------|----------------|
A  :----------------|-----------------|----------------|
F  :----------------|-----------------|----------------|
C  :5-5-5-5-5-5-5-5-|5-5-5-5--7---5---|----4-------4---|
G  :3-3-3-3-3-3-3-3-|3-3-3-3--5---3---|2-2-2-2-2-2-2---|
D  :----------------|-----------------|0-0---0-0-0-----|

============================================================================
=


D  :--------------------|----------------|--------------------|
A  :--------------------|----------------|--------------------|
F  :--------------------|----------------|--------------------|
C  :----4-----------4---|----4-------4---|----4-----------4---|
G  :2-2-2-2-2-2-2-2-2---|2-2-2-2-2-2-2---|2-2-2-2-2-2-2-2-2---|
D  :0-0---0-0-0-0-0-----|0-0---0-0-0-----|0-0---0-0-0-0-0-----|


F  :--------------------|----------------|--------------------|
C  :--------------------|----------------|--------------------|
G  :----2-----------2---|----2-------2---|----2-----------2---|
D  :0-0---0-0-0-0-0-----|0-0---0-0-0-----|0-0---0-0-0-0-0-----|

D  :--------------------|----------------|--------------------|
A  :--------------------|----------------|--------------------|
F  :--------------------|----------------|--------------------|
C  :----4-----------4---|----4-------4---|----4-----------4---|
G  :2-2-2-2-2-2-2-2-2---|2-2-2-2-2-2-2---|2-2-2-2-2-2-2-2-2---|
D  :0-0---0-0-0-0-0-----|0-0---0-0-0-----|0-0---0-0-0-0-0-----|

============================================================================
=


D  :-------------------|-------------------|-------------------|
A  :-------------------|-------------------|-------------------|
F  :-------------------|-------------------|-------------------|
C  :7-10-7-10---7-10-9-|7-10-7-10---7-10-9-|7-10-7-10---7-10-9-|
G  :5--8-5--8---5--8-7-|5--8-5--8---5--8-7-|5--8-5--8---5--8-7-|
D  :-------------------|-------------------|-------------------|


F  :-------------------|-------------------|-------------------|
C  :-------------------|-------------------|-------------------|
G  :5--8-5--8---5--8-7-|5--8-5--8---5--8-7-|5--8-5--8---5--8-7-|
D  :-------------------|-------------------|-------------------|

D  :-------------------|-------------------|-------------------|
A  :-------------------|-------------------|-------------------|
F  :-------------------|-------------------|-------------------|
C  :7-10-7-10---7-10-9-|7-10-7-10---7-10-9-|7-10-7-10---7-10-9-|
G  :5--8-5--8---5--8-7-|5--8-5--8---5--8-7-|5--8-5--8---5--8-7-|
D  :-------------------|-------------------|-------------------|

============================================================================
=


D  :-------------------|-----------------|-----------------|
A  :-------------------|-----------------|-----------------|
F  :-------------------|-----------------|-----------------|
C  :7-10-7-10---7-10-9-|*----------------|-----------------|
G  :5--8-5--8---5--8-7-|*----------------|-----------------|
D  :-------------------|-----------------|-----------------|


F  :-------------------|-----------------|-----------------|
C  :-------------------|--7---7-----7----|--7---7-----7----|
G  :5--8-5--8---5--8-7-|5---5-----5---5/-|8---8-----8---8/-|
D  :-------------------|-----------------|-----------------|

D  :-------------------|-----------------|-----------------|
A  :-------------------|-----------------|-----------------|
F  :-------------------|-----------------|-----------------|
C  :7-10-7-10---7-10-9-|-----------------|------------7----|
G  :5--8-5--8---5--8-7-|5----------------|8-------------8--|
D  :-------------------|-----------------|-----------------|

============================================================================
=


D  :-----------------|----------------|-----------------|
A  :-----------------|----------------|-----------------|
F  :-----------------|----------------|-----------------|
C  :-----------------|----------------|-----------------|
G  :-----------------|----------------|-----------------|
D  :-----------------|----------------|-----------------|


F  :-----------------|----------------|-----------------|
C  :--7---7-----7----|--7---7-----7---|--7---7-----7----|
G  :5---5-----5---5/-|8---8-----8---8-|5---5-----5---5/-|
D  :-----------------|----------------|-----------------|

D  :-----------------|----------------|-----------------|
A  :-----------------|----------------|-----------------|
F  :-----------------|----------------|-----------------|
C  :-----------------|*---------------|-----------------|
G  :5----------------|*---------------|-----------------|
D  :-----------------|----------------|-----------------|

============================================================================
=

[ Tab from: http://www.guitartabs.cc/tabs/l/life_of_agony/the_stain_remains_tab_ver_2.html ]
D  :----------------|-----------------|----------------|-----------------|
A  :----------------|-----------------|----------------|-----------------|
F  :----------------|-----------------|----------------|-----------------|
C  :----------------|-----------------|----------------|7----------------|
G  :----------------|-----------------|----------------|5----------------|
D  :----------------|-----------------|----------------|-----------------|


F  :----------------|-----------------|----------------|-----------------|
C  :--7---7-----7---|--7---7-----7----|--7---7-----7---|------------7----|
G  :8---8-----8---8-|5---5-----5---5/-|8---8-----8---8-|5-5-5-5-5-5---5/-|
D  :----------------|-----------------|----------------|-----------------|

D  :----------------|-----------------|----------------|-----------------|
A  :----------------|-----------------|----------------|-----------------|
F  :----------------|-----------------|----------------|-----------------|
C  :----------------|-----------------|----------------|7----------------|
G  :----------------|-----------------|----------------|5----------------|
D  :----------------|-----------------|----------------|-----------------|

============================================================================
=


D  :------------------|-----------------|-----------------|
A  :------------------|-----------------|-----------------|
F  :------------------|-----------------|-----------------|
C  :10----------------|7----------------|10---------------|
G  :-8----------------|5----------------|-8---------------|
D  :------------------|-----------------|-----------------|


F  :------------------|-----------------|-----------------|
C  :-------------7----|------------7----|-----------------|
G  :-8-8-8-8-8-8---8/-|5-5-5-5-5-5---5/-|-8-8-8-8-8-8-8-8-|
D  :------------------|-----------------|-----------------|

D  :------------------|-----------------|-----------------|
A  :------------------|-----------------|-----------------|
F  :------------------|-----------------|-----------------|
C  :10----------------|7----------------|10---------------|
G  :-8----------------|5----------------|-8---------------|
D  :------------------|-----------------|-----------------|

============================================================================
=

     So lo B reak
D  :|*-------------------|-------------------|-------------------|
A  :|*-------------------|-------------------|-------------------|
F  :| -------------------|-------------------|-------------------|
C  :| 7-10-7-10---7-10-9-|7-10-7-10---7-10-9-|7-10-7-10---7-10-9-|
G  :| 5--8-5--8---5--8-7-|5--8-5--8---5--8-7-|5--8-5--8---5--8-7-|
D  :| -------------------|-------------------|-------------------|


F  :|*-------------------|-------------------|-------------------|
C  :| -------------------|-------------------|-------------------|
G  :| 5--8-5--8---5--8-7-|5--8-5--8---5--8-7-|5--8-5--8---5--8-7-|
D  :| -------------------|-------------------|-------------------|

D  :|*-------------------|-------------------|-------------------|
A  :|*-------------------|-------------------|-------------------|
F  :| -------------------|-------------------|-------------------|
C  :| 7-10-7-10---7-10-9-|7-10-7-10---7-10-9-|7-10-7-10---7-10-9-|
G  :| 5--8-5--8---5--8-7-|5--8-5--8---5--8-7-|5--8-5--8---5--8-7-|
D  :| -------------------|-------------------|-------------------|

============================================================================
=


D  :-------------------||*----------------|--------------------|
A  :-------------------||*----------------|--------------------|
F  :-------------------|| ----------------|--------------------|
C  :7-10-7-10---7-10-9-|| ----------------|---------7--7--7--7-|
G  :5--8-5--8---5--8-7-|| 7-7-7-7-7-7-7-7-|7-7-7-7--5--5--5--5-|
D  :-------------------|| 5-5-5-5-5-5-5-5-|5-5-5-5-------------|


F  :-------------------||*----------------|--------------------|
C  :-------------------|| ----------------|--------------------|
G  :5--8-5--8---5--8-7-|| ----------------|--------------------|
D  :-------------------|| 5-5-5-5-5-5-5-5-|5-5-5-5-10-10-10-10-|

D  :-------------------||*----------------|--------------------|
A  :-------------------||*----------------|--------------------|
F  :-------------------|| ----------------|--------------------|
C  :7-10-7-10---7-10-9-|| ----------------|---------7--7--7--7-|
G  :5--8-5--8---5--8-7-|| 7-7-7-7-7-7-7-7-|7-7-7-7--5--5--5--5-|
D  :-------------------|| 5-5-5-5-5-5-5-5-|5-5-5-5-------------|

============================================================================
=


D  :----------------|------------------*2|----------------|
A  :----------------|------------------*||----------------|
F  :----------------|------------------ ||----------------|
C  :5-5-5-5-5-5-5-5-|5-5-5-5--7--7-5-5- ||----------------|
G  :3-3-3-3-3-3-3-3-|3-3-3-3--5--5-3-3- ||7-7-7-7-7-7-7-7-|
D  :----------------|------------------ ||5-5-5-5-5-5-5-5-|


F  :----------------|------------------*2|----------------|
C  :----------------|------------------ ||----------------|
G  :----------------|------------------ ||----------------|
D  :8-8-8-8-8-8-8-8-|8-8-8-8-10-10-8-8- ||5-5-5-5-5-5-5-5-|

D  :----------------|------------------*2|----------------|
A  :----------------|------------------*||----------------|
F  :----------------|------------------ ||----------------|
C  :5-5-5-5-5-5-5-5-|5-5-5-5--7--7-5-5- ||----------------|
G  :3-3-3-3-3-3-3-3-|3-3-3-3--5--5-3-3- ||7-7-7-7-7-7-7-7-|
D  :----------------|------------------ ||5-5-5-5-5-5-5-5-|

============================================================================
=


D  :--------------------|----------------|-----------------|
A  :--------------------|----------------|-----------------|
F  :--------------------|----------------|-----------------|
C  :---------7--7--7--7-|5-5-5-5-5-5-5-5-|5-5-5-5--7---5---|
G  :7-7-7-7--5--5--5--5-|3-3-3-3-3-3-3-3-|3-3-3-3--5---3---|
D  :5-5-5-5-------------|----------------|-----------------|


F  :--------------------|----------------|-----------------|
C  :--------------------|----------------|-----------------|
G  :--------------------|----------------|-----------------|
D  :5-5-5-5-10-10-10-10-|8-8-8-8-8-8-8-8-|8-8-8-8-10---8---|

D  :--------------------|----------------|-----------------|
A  :--------------------|----------------|-----------------|
F  :--------------------|----------------|-----------------|
C  :---------7--7--7--7-|5-5-5-5-5-5-5-5-|5-5-5-5--7---5---|
G  :7-7-7-7--5--5--5--5-|3-3-3-3-3-3-3-3-|3-3-3-3--5---3---|
D  :5-5-5-5-------------|----------------|-----------------|

============================================================================
=


D  :-------------------|----------------|-------------------|
A  :-------------------|----------------|-------------------|
F  :-------------------|----------------|-------------------|
C  :-------------------|----------------|-------------------|
G  :-2-----------------|----------------|-*-----------------|
D  :-0-----------------|----------------|-*-----------------|


F  :-------------------|----------------|-------------------|
C  :-------------------|----------------|-------------------|
G  :-------------------|----------------|-------------------|
D  :-0-----------------|----------------|-*-----------------|

D  :-------------------|----------------|-------------------|
A  :-------------------|----------------|-------------------|
F  :-------------------|----------------|-------------------|
C  :10-9-*-12-10-*-7-9-|----------------|10-9-*-12-10-*-7-9-|
G  :-8-7-*-10--8-*-5-7-|2-2-2-2-2-2-2-2-|-8-7-*-10--8-*-5-7-|
D  :-------------------|0-0-0-0-0-0-0-0-|-------------------|

============================================================================
=


D  :----------------||*-------------------|----------------*1|
A  :----------------||*-------------------|----------------*||
F  :----------------|| -------------------|---------------- ||
C  :*---------------|| 10-9-*-12-10-*-7-9-|---------------- ||
G  :2-2-2-2-2-2-2-2-|| -8-7-*-10--8-*-5-7-|2-2-2-2-2-2-2-2- ||
D  :0-0-0-0-0-0-0-0-|| -------------------|0-0-0-0-0-0-0-0- ||


F  :----------------||*-------------------|----------------*1|
C  :----------------|| -------------------|---------------- ||
G  :*---------------|| -8-7-*-10--8-*-5-7-|*--------------- ||
D  :0-0-0-0-0-0-0-0-|| -------------------|0-0-0-0-0-0-0-0- ||

D  :----------------||*-------------------|----------------*1|
A  :----------------||*-------------------|----------------*||
F  :----------------|| -------------------|---------------- ||
C  :*---------------|| 10-9-*-12-10-*-7-9-|---------------- ||
G  :2-2-2-2-2-2-2-2-|| -8-7-*-10--8-*-5-7-|2-2-2-2-2-2-2-2- ||
D  :0-0-0-0-0-0-0-0-|| -------------------|0-0-0-0-0-0-0-0- ||

============================================================================
=


D  :-------------------|----------------|-------------------|
A  :-------------------|----------------|-------------------|
F  :-------------------|----------------|-------------------|
C  :10-9-*-12-10-*-7-9-|*---------------|10-9-*-12-10-*-7-9-|
G  :-8-7-*-10--8-*-5-7-|2-2-2-2-2-2-2-2-|-8-7-*-10--8-*-5-7-|
D  :-------------------|0-0-0-0-0-0-0-0-|-------------------|


F  :-------------------|----------------|-------------------|
C  :-------------------|----------------|-------------------|
G  :-8-7-*-10--8-*-5-7-|*---------------|-8-7-*-10--8-*-5-7-|
D  :-------------------|0-0-0-0-0-0-0-0-|-------------------|

D  :-------------------|----------------|-------------------|
A  :-------------------|----------------|-------------------|
F  :-------------------|----------------|-------------------|
C  :10-9-*-12-10-*-7-9-|*---------------|10-9-*-12-10-*-7-9-|
G  :-8-7-*-10--8-*-5-7-|2-2-2-2-2-2-2-2-|-8-7-*-10--8-*-5-7-|
D  :-------------------|0-0-0-0-0-0-0-0-|-------------------|

============================================================================
=

                     "All I  Need...
D  :----------------|-------------------|----------------|
A  :----------------|-------------------|----------------|
F  :----------------|-------------------|----------------|
C  :----------------|10-9-*-12-10-*-7-9-|*---------------|
G  :2-2-2-2-2-2-2-2-|-8-7-*-10--8-*-5-7-|2-2-2-2-2-2-2-2-|
D  :0-0-0-0-0-0-0-0-|-------------------|0-0-0-0-0-0-0-0-|


F  :----------------|-------------------|----------------|
C  :----------------|-------------------|----------------|
G  :*---------------|-8-7-*-10--8-*-5-7-|*---------------|
D  :0-0-0-0-0-0-0-0-|-------------------|0-0-0-0-0-0-0-0-|

D  :----------------|-------------------|----------------|
A  :----------------|-------------------|----------------|
F  :----------------|-------------------|----------------|
C  :----------------|10-9-*-12-10-*-7-9-|*---------------|
G  :2-2-2-2-2-2-2-2-|-8-7-*-10--8-*-5-7-|2-2-2-2-2-2-2-2-|
D  :0-0-0-0-0-0-0-0-|-------------------|0-0-0-0-0-0-0-0-|

============================================================================
=


D  :-------------------|----------------|-------------------|
A  :-------------------|----------------|-------------------|
F  :-------------------|----------------|-------------------|
C  :10-9-*-12-10-*-7-9-|----------------|10-9-*-12-10-*-7-9-|
G  :-8-7-*-10--8-*-5-7-|2-2-2-2-2-2-2-2-|-8-7-*-10--8-*-5-7-|
D  :-------------------|0-0-0-0-0-0-0-0-|-------------------|


F  :-------------------|----------------|-------------------|
C  :-------------------|----------------|-------------------|
G  :-8-7-*-10--8-*-5-7-|*---------------|-8-7-*-10--8-*-5-7-|
D  :-------------------|0-0-0-0-0-0-0-0-|-------------------|

D  :-------------------|----------------|-------------------|
A  :-------------------|----------------|-------------------|
F  :-------------------|----------------|-------------------|
C  :10-9-*-12-10-*-7-9-|----------------|10-9-*-12-10-*-7-9-|
G  :-8-7-*-10--8-*-5-7-|2-2-2-2-2-2-2-2-|-8-7-*-10--8-*-5-7-|
D  :-------------------|0-0-0-0-0-0-0-0-|-------------------|

============================================================================
=

                                                  ...is
D  :----------------|-------------------|----------------|
A  :----------------|-------------------|----------------|
F  :----------------|-------------------|----------------|
C  :*---------------|10-9-*-12-10-*-7-9-|----------------|
G  :2-2-2-2-2-2-2-2-|-8-7-*-10--8-*-5-7-|2-2-2-2-2-2-2-2-|
D  :0-0-0-0-0-0-0-0-|-------------------|0-0-0-0-0-0-0-0-|


F  :----------------|-------------------|----------------|
C  :----------------|-------------------|----------------|
G  :*---------------|-8-7-*-10--8-*-5-7-|*---------------|
D  :0-0-0-0-0-0-0-0-|-------------------|0-0-0-0-0-0-0-0-|

D  :----------------|-------------------|----------------|
A  :----------------|-------------------|----------------|
F  :----------------|-------------------|----------------|
C  :*---------------|10-9-*-12-10-*-7-9-|----------------|
G  :2-2-2-2-2-2-2-2-|-8-7-*-10--8-*-5-7-|2-2-2-2-2-2-2-2-|
D  :0-0-0-0-0-0-0-0-|-------------------|0-0-0-0-0-0-0-0-|

============================================================================
=

   me"
D  :----------------------|------------------------|
A  :----------------------|------------------------|
F  :----------------------|------------------------|
C  :----------------------|------------------------|
G  :2-----------------*---|------------------------|
D  :0-----------------*---|------------------------|


F  :----------------------|------------------------|
C  :----------------------|------------------------|
G  :----------------------|------------------------|
D  :0-----------------*---|--------------------12/-|

D  :----------------------|------------------------|
A  :----------------------|------------------------|
F  :----------------------|------------------------|
C  :----------------------|------------------------|
G  :2-2-2-8--9--8---------|2-2-2-8--9--8-----------|
D  :0-0-0-6-h7-h6---------|0-0-0-6-h7-h6-----------|

============================================================================
=


D  :------------------------------|------------------------------|
A  :------------------------------|------------------------------|
F  :------------------------------|------------------------------|
C  :------------------------------|------------------------------|
G  :2-2-2-8--9--8-2-2-2-2-8--9--8-|2-2-2-8--9--8-2-2-2-2-8--9--8-|
D  :0-0-0-6-h7-h6-0-0-0-0-6-h7-h6-|0-0-0-6-h7-h6-0-0-0-0-6-h7-h6-|


F  :------------------------------|------------------------------|
C  :------------------------------|------------------------------|
G  :------------------------------|------------------------------|
D  :0-0-0-6-h7-h6-0-0-0-0-6-h7-h6-|0-0-0-6-h7-h6-0-0-0-0-6-h7-h6-|

D  :------------------------------|------------------------------|
A  :------------------------------|------------------------------|
F  :------------------------------|------------------------------|
C  :------------------------------|------------------------------|
G  :2-2-2-8--9--8-2-2-2-2-8--9--8-|2-2-2-8--9--8-2-2-2-2-8--9--8-|
D  :0-0-0-6-h7-h6-0-0-0-0-6-h7-h6-|0-0-0-6-h7-h6-0-0-0-0-6-h7-h6-|

============================================================================
=


D  :------------------------------|------------------------------|
A  :------------------------------|------------------------------|
F  :------------------------------|------------------------------|
C  :------------------------------|------------------------------|
G  :2-2-2-8--9--8-2-2-2-2-8--9--8-|2-2-2-8--9--8-2-2-2-2-8--9--8-|
D  :0-0-0-6-h7-h6-0-0-0-0-6-h7-h6-|0-0-0-6-h7-h6-0-0-0-0-6-h7-h6-|


F  :------------------------------|------------------------------|
C  :------------------------------|------------------------------|
G  :------------------------------|------------------------------|
D  :0-0-0-6-h7-h6-0-0-0-0-6-h7-h6-|0-0-0-6-h7-h6-0-0-0-0-6-h7-h6-|

D  :------------------------------|------------------------------|
A  :------------------------------|------------------------------|
F  :------------------------------|------------------------------|
C  :------------------------------|------------------------------|
G  :2-2-2-8--9--8-2-2-2-2-8--9--8-|2-2-2-8--9--8-2-2-2-2-8--9--8-|
D  :0-0-0-6-h7-h6-0-0-0-0-6-h7-h6-|0-0-0-6-h7-h6-0-0-0-0-6-h7-h6-|

============================================================================
=


D  :------------------------------|------------------------------|
A  :------------------------------|------------------------------|
F  :------------------------------|------------------------------|
C  :------------------------------|------------------------------|
G  :2-2-2-8--9--8-2-2-2-2-8--9--8-|2-2-2-8--9--8-2-2-2-2-8--9--8-|
D  :0-0-0-6-h7-h6-0-0-0-0-6-h7-h6-|0-0-0-6-h7-h6-0-0-0-0-6-h7-h6-|


F  :------------------------------|------------------------------|
C  :------------------------------|------------------------------|
G  :------------------------------|------------------------------|
D  :0-0-0-6-h7-h6-0-0-0-0-6-h7-h6-|0-0-0-6-h7-h6-0-0-0-0-6-h7-h6-|

D  :------------------------------|------------------------------|
A  :------------------------------|------------------------------|
F  :------------------------------|------------------------------|
C  :------------------------------|------------------------------|
G  :2-2-2-8--9--8-2-2-2-2-8--9--8-|2-2-2-8--9--8-2-2-2-2-8--9--8-|
D  :0-0-0-6-h7-h6-0-0-0-0-6-h7-h6-|0-0-0-6-h7-h6-0-0-0-0-6-h7-h6-|

============================================================================
=


D  :------------------------------|----------------------------|
A  :------------------------------|----------------------------|
F  :------------------------------|----------------------------|
C  :------------------------------|----------------------------|
G  :2-2-2-8--9--8-2-2-2-2-8--9--8-|2-2-2-8--9--8-2-2-2-2-8-9-2-|
D  :0-0-0-6-h7-h6-0-0-0-0-6-h7-h6-|0-0-0-6-h7-h6-0-0-0-0-6-7-0-|


F  :------------------------------|----------------------------|
C  :------------------------------|----------------------------|
G  :------------------------------|----------------------------|
D  :0-0-0-6-h7-h6-0-0-0-0-6-h7-h6-|0-0-0-6-h7-h6-0-0-0-0-6-7-0-|

D  :------------------------------|----------------------------|
A  :------------------------------|----------------------------|
F  :------------------------------|----------------------------|
C  :------------------------------|----------------------------|
G  :2-2-2-8--9--8-2-2-2-2-8--9--8-|2-2-2-8--9--8-2-2-2-2-8-9-2-|
D  :0-0-0-6-h7-h6-0-0-0-0-6-h7-h6-|0-0-0-6-h7-h6-0-0-0-0-6-7-0-|

============================================================================
=


D  :----------------|----------------|----------------------|
A  :----------------|----------------|----------------------|
F  :----------------|----------------|----------------------|
C  :----------------|----------------|----------------------|
G  :----------------|----------------|2-2-2-2-8-9-2-*-------|
D  :----------------|----------------|0-0-0-0-6-7-0-*-------|


F  :----------------|----------------|----------------------|
C  :----------------|----------------|----------------------|
G  :----------------|----------------|----------------------|
D  :----------------|----------------|0-0-0-0-6-7-0-*-------|

D  :----------------|----------------|----------------------|
A  :----------------|----------------|----------------------|
F  :----------------|----------------|----------------------|
C  :----------------|----------------|----------------------|
G  :----------------|----------------|2-2-2-2-8-9-2-*-------|
D  :----------------|----------------|0-0-0-0-6-7-0-*-------|

That's it. I'd appreciate it if someone would post the LOA song
"Underground," or the bridge riff to "Respect."
Comments