Life Of Agony - Seasons Chords & Tabs

 

Seasons Chords & Tabs

Life Of Agony Chords & Tabs

Version: 1 Type: Tab 0 ratings
1 star 2 stars 3 stars 4 stars 5 stars
comments

Seasons Tab

Seasons

BY LIFE OF AGONY
from album 'ugly'

transcribed by Christian Reindel (creindel@gmx.de)
any questions or corrections- e-mail me

TUNE DOWN ONE WHOLE STEP: Dropped C tuning

Intro

weird guitar noise effects

  Verse 1 - Riff 1 (2 times)

      this Part 3 times              than this Part
D:|--------------------------------|---------------------------|
A:|--------------------------------|---------------------------|
F:|--------------------------------|---------------------------|
C:|--------------------------------|---------------------------|
G:|-3~---3~---3~---3~----5-5-5-5---|-3-3-3-3-------------------|
C:|---0----0----0----0-------------|----------5-5-5-5--5--3----|

Chorus Riff (it's hard to transcribe - just try and send me your part)
    this Part 7 times       than this Part
D:|------------------------|-------------------------------------|
A:|------------------------|-------------------------------------|
F:|------------------------|-------------------------------------|
C:|------------------------|-------------------------------------|
G:|------------------------|-----------------5-(5)--5-5-5-5-5----|
C:|--4-3-0--4--3--0--3~----|-4-3-0--4--3--0--5-(5) -5-5-5-5-5----|

[ Tab from: http://www.guitartabs.cc/tabs/l/life_of_agony/seasons_tab.html ]
  Verse 2 -  Riff 2

      this Part 7 times              than this Part
D:|--------------------------------|---------------------------|
A:|--------------------------------|---------------------------|
F:|--------------------------------|---------------------------|
C:|--------------------------------|---------------------------|
G:|-3~---3~---3~---3~----5-5-5-5---|-3-3-3-3-------------------|
C:|---0----0----0----0-------------|----------5-5-5-5--5--3----|

than Chorus Riff

Verse 3 with Riff 2 

Outro Riff  Guitar 1 (with wah till the end)
D:|---------------------------------------------------|
A:|---------------------------------------------------|
F:|---------------------------------------------------|
C:|---7--5----3--------------------5-5-5-5------------|
G:|-5------5-----5--3--5--3-3-3-3---------------------|
C:|---------------------------------------------------|

Outro Riff Guitar 2  till end
D:|---------------------------------------------|
A:|---------------------------------------------|
F:|---------------------------------------------|
C:|-----------------------3-3-3-3---------------|
G:|-0-0-0-0-0-0-0-0-0-0-0-3-3-3-3-5-5-5-5-------|
C:|-0-0-0-0-0-0-0-0-0-0-0---------5-5-5-5-------|

End.
Comments