Life Of Agony - Other Side Of The River Chords & Tabs

 

Other Side Of The River Chords & Tabs

Life Of Agony Chords & Tabs

Version: 2 Type: Tab 0 ratings
1 star 2 stars 3 stars 4 stars 5 stars
comments

Other Side Of The River Tab

OTHER SIDE OF THE RIVER
BY LIFE OF AGONY

TUNE DOWN ONE STEP

           VERSE
D:|-----||--------------------------|--------------------------|
A:|-----||--------------------------|--------------------------|
F:|-----||*-------------------------|--------------------------|
C:|-----||*-------------------------|--------------------------|
G:|-2-2-||-5--5--5--2--2--2--2--2-2-|-5--5--5--2--2--2--2--2-2-|
D:|-0-0-||-3--3--3--0--0--0--0--0-0-|-3--3--3--0--0--0--0--0-0-|
    . .    .  .  .  .  .  .  .  . .   .  .  .  .  .  .  .  . .  
                                                (3 times)
D:|--------------------------|---------------------------||
A:|--------------------------|---------------------------||
F:|--------------------------|--------------------------*||
C:|--------------------------|----5--5--2---------------*||
G:|-5--5--5--2--2--2--2--2-2-|-5--5--5--2--2-2-2--2--2-2-||
D:|-3--3--3--0--0--0--0--0-0-|-3--3--3--0--0-0-0--0--0-0-||
    .  .  .  .  .  .  .  . .   .           . . .  .  . .

     PRE CHORUS                               (4 times)
D:||-------------------------|-------------------------||
A:||-------------------------|-------------------------||
F:||*------------------------|-5-----5-----5---5-5-5-5*||
C:||*5-----5-----5---5-5-5-5-|-5-----5-----5---5-5-5-5*||
G:||-5-----5-----5---5-5-5-5-|-3-----3-----3---3-3-3-3-||
D:||-3-----3-----3---3-3-3-3-|-------------------------||

VERSE (3 times)

PRE CHORUS (3 times)

    CHORUS
D:|-----------------------------|-----------------------------|
A:|-----------------------------|-----------------------------|
F:|-----------------------------|-5--5-5-5--5-5--5-5--5-5-5-5-|
C:|-5--5-5-5--5-5--5-5--5-5-5-5-|-5--5-5-5--5-5--5-5--5-5-5-5-|
G:|-5--5-5-5--5-5--5-5--5-5-5-5-|-3--3-3-3--3-3--3-3--3-3-3-3-|
D:|-3--3-3-3--3-3--3-3--3-3-3-3-|-----------------------------|
[ Tab from: http://www.guitartabs.cc/tabs/l/life_of_agony/other_side_of_the_river_tab_ver_2.html ]
                                                        (4 times) 
D:||------------------------------|------------------------------||
A:||------------------------------|------------------------------||
F:||*-----------------------------|-5------5--------------5--5-5*||
C:||*5------5--------------5------|-5------5--------------5--5-5*||
G:||-5------5--------------5------|-3--3-3-3--3-3-3-3-3-3-3--3-3-||
D:||-3--3-3-3--3-3-3-3-3-3-3--3-3-|------------------------------||
        . .    . . . . . .    . .      . .    . . . . . .
 
     BRIDGE           (3 times)
D:||---------------------------||---------------------------|
A:||---------------------------||---------------------------|
F:||*-------------------------*||---------------------------|
C:||*------3--------------3---*||-------3--3----------------|
G:||-3--3--3--------------3----||-3--3--3--3--3--3----------|
D:||-1--1--1--1-1-1-1-1-1-1----||-1--1--1--1--1--1--1-1-1-1-|
     .  .     . . . . . .         .  .        .  .  . . . .  
                      (4 times)
D:||---------------------------||----------------------------|
A:||---------------------------||----------------------------|
F:||*-------------------------*||*---------------------------|
C:||*------2--------------2---*||*------2--------------2^3-2-|
G:||-2--2--2--------------2----||-2--2--2--------------------|
D:||-0--0--0--0-0-0-0-0-0-0----||-0--0--0--0-0-0-0-0-0-------|
     .  .     . . . . . .         .  .     . . . . . . 
                      (2 times)
 D:|---------------------------||
 A:|---------------------------||
 F:|--------------------------*||
 C:|-------2----------2--2^3-2*||
 G:|-2--2--2-------------------||
 D:|-0--0--0--0-0-0-0----------||
     .  .     . . . .

    SOLO (w/VERSE Rhythm) 
D:|-------------------------|-------------------------|
A:|-------------------------|-------------------------|
F:|/4--------------4--4^5^4-|-4^5^4----------4--4^5^4-|
C:|-------------------------|-------5-----------------|
G:|-------------------------|-------------------------|
D:|-------------------------|-------------------------|

D:|-------3-----------------|-------------------------|
A:|----------------5------8-|---------------------(8)-|
F:|-4^5^4----------4------7-|---------------------(7)-|
C:|-------------------------|-------------------------|
G:|-------------------------|-------------------------|
D:|-------------------------|-------------------------|

    VERSE 3
D:|------|------|--------------------------|--------------------------|
A:|------|------|--------------------------|--------------------------|
F:|------|------|---------12----12^14-12---|--------------------(12\)-|
C:|------|------|---12^14----14------------|--------------------------|
G:|------|------|--------------------------|--------------------------|
D:|------|------|--------------------------|--------------------------|

D:|------|------|--------------------------|--------------------------|
A:|------|------|---12-12-------12-12------|---12-12------------------|
F:|------|------|---12-12-------12-12------|---12-12-(12)-b-(15)------|
C:|------|------|--------------------------|--------------------------|
G:|------|------|--------------------------|--------------------------|
D:|------|------|--------------------------|--------------------------|

PRE CHORUS (3 times)

CHORUS

    OUTRO                                                        (4 times)
D||-----------------|-----------------|-----------------|-----------------||
A||-----------------|-----------------|-----------------|-----------------||
F||*----------------|-----------------|-5-5-5-5-5-5-5-5-|-5-5-5-5-5-5-5-5*||
C||*5-5-5-5-5-5-5-5-|-5-5-5-5-5-5-5-5-|-5-5-5-5-5-5-5-5-|-5-5-5-5-5-5-5-5*||
G||-5-5-5-5-5-5-5-5-|-5-5-5-5-5-5-5-5-|-3-3-3-3-3-3-3-3-|-3-3-3-3-3-3-3-3-||
D||-3-3-3-3-3-3-3-3-|-3-3-3-3-3-3-3-3-|-----------------|-----------------||

D:|-----------------------------------------------------------------------|
A:|-----------------------------------------------------------------------|
F:|-----------------------------------------------------------------------|
C:|-3-----------------------------------------------------------------(3)-|
G:|-3-----------------------------------------------------------------(3)-|
D:|-1-----------------------------------------------------------------(1)-|

transcribed by Paul Kiepert
paulk@csd.uwm.edu
Comments