Life Of Agony - None Chords & Tabs

 

None Chords & Tabs

Life Of Agony Chords & Tabs

Version: 1 Type: Tab 0 ratings
1 star 2 stars 3 stars 4 stars 5 stars
comments

None Tab

none

BY LIFE OF AGONY
from album 'soul searching sun'

transcribed by Christian Reindel (creindel@gmx.de)
any questions or corrections: e-mail me

TUNE DOWN ONE WHOLE STEP: Dropped C tuning

Intro

Riff 1         3x                        1x
D:|------------------------------|-----------------------------|
A:|------------------------------|-----------------------------|
F:|-----------7------------------|-----------------------------|
C:|-10--9--7--5------------------|-10--9--7--8--(8)------------|
G:|--8--7--5-----5--5-/-7-\-5----|--8--7--5--6--(6)------------|
C:|------------------------------|-----------------------------|

Verseriff with wah wah
D:|--------------------------------------------------------------|
A:|--------------------------------------------------------------|
F:|--7-7-7-7-7-7-7-7-7-7-7-7-7-7-7-7-7-7-7-7-7-7-7-7-7-7-7-7-7---|
C:|--5-5-5-5-5-5-5-5-5-5-5-5-5-5-5-5-5-5-5-5-5-5-5-5-5-5-5-5-5---|
G:|--------------------------------------------------------------|
C:|--------------------------------------------------------------|
[ Tab from: http://www.guitartabs.cc/tabs/l/life_of_agony/none_tab.html ]
Riff 2
D:|--------------------------------------------------------------|
A:|--------------------------------------------------------------|
F:|--------------------------------------------------------------|
C:|--------------------------------------------------------------|
G:|--------------------------------------------------------------|
C:|-5-5-5--2^3-3-3--2-3-3-3-3--1-(1)-----------------------------|

Chorus
D:|--------------------------------------------------------------|
A:|--------------------------------------------------------------|
F:|--------------------------------------------------------------|
C:|-----------------5-5-5-5-5-5-5-5------------------------------|
G:|-5-5-5-5-5-5-5-5-3-3-3-3-3-3-3-3-8-8-8-8-8-8-8-7-(7)--888-7---|
C:|-5-5-5-5-5-5-5-5-----------------8-8-8-8-8-8-8-7-(7)--888-7---|

Outro      
D:|-----------------------------|
A:|-----------------------------|
F:|-----------------------------|
C:|-10--9--7--8-(8)-8-8-8-8-----|
G:|--8--7--5--6-(6)-6-6-6-6-----|
C:|-----------------------------|

song structure:

Riff 1
Verseriff
Riff 2
Chorus
Verseriff
Riff 2
Chorus
Riff 1
Guitarsolo with verseriff
Chorus
Outro 

end.
Comments