Life Of Agony - Lead You Astray Chords & Tabs

 

Lead You Astray Chords & Tabs

Life Of Agony Chords & Tabs

Version: 2 Type: Tab 0 ratings
1 star 2 stars 3 stars 4 stars 5 stars
comments

Lead You Astray Tab

lead you astray

BY LIFE OF AGONY
from album 'soul searching sun'

transcribed by Christian Reindel (creindel@gmx.de)
any questions or corrections: e-mail me

TUNE DOWN ONE WHOLE STEP: Dropped C tuning
  intro  
D:|----11~~~~~~~~---------------11~~~~~~~~~~~~----------------------|
A:|----------------8~~~~~~~~~~-----------------8~~~~~~~~~~~~--------|
F:|-----------------------------------------------------------------|
C:|-----------------------------------------------------------------|
G:|-----------------------------------------------------------------|
C:|-----------------------------------------------------------------|
                                                         end intro
D:|-----------------------------------------------------------------|
A:|-----------------------------------------------------------------|
F:|--------------------------------------------7~~------------------|
C:|------7~~~~--------7~~~~---------7~~~~--------------7~~~~~-------|
G:|-5-5--5~~~~---5-5--5~~~~----5-5--5~~~~---------5-5--5~~~~~-------|
C:|-----------------------------------------------------------------|
[ Tab from: http://www.guitartabs.cc/tabs/l/life_of_agony/lead_you_astray_tab_ver_2.html ]
 mainriff -  I lead you astray
D:|---------------------------|
A:|---------------------------|
F:|---------------------------|
C:|---------------------------|
G:|---------------------------|
C:|-5-0-3--0---5--3^5^3-------|

  bridge
D:|-----------------------------------------|
A:|-----------------------------------------|
F:|-----------------------------------------|
C:|------5~~-3-3^5^3------3~~-3-3^5^3-------|
G:|--4-5--------------4-5-------------------|
C:|-----------------------------------------|

   Verseriff
D:|------------------------------------------|
A:|------------------------------------------|
F:|------------------------------------------|
C:|------------------------------------------|
G:|--5~~----5-------------5~~----3-----------|
C:|------0--5--3^5^3----------0--3--3^5^3----|

   fill 1
D:|---------------------------|
A:|---------------------------|
F:|---------------------------|
C:|--3~~~~---------3~~~~~~~---|
G:|---------5~~~~-------------|
C:|---------------------------|

song structure:

intro
mainriff
bridge - 4 times
verseriff
mainriff
fill 1
verseriff
bridge - 4 times
fill 1
mainriff (play'til the end)
last note
D:|--------------|
A:|--------------|
F:|--------------|
C:|--3~~~~-------|
G:|--------------|
C:|--------------|

end.
Comments