Life Of Agony - I Regret Chords & Tabs

 

I Regret Chords & Tabs

Life Of Agony Chords & Tabs

Version: 1 Type: Tab 0 ratings
1 star 2 stars 3 stars 4 stars 5 stars
comments

I Regret Tab

I Regret

BY LIFE OF AGONY
from album 'ugly'

transcribed by Christian Reindel (creindel@gmx.de)
any questions or corrections- e-mail me

TUNE DOWN ONE WHOLE STEP: Dropped C tuning

   INTRO   
   Riff 1                    
D:|---------------------------------|
A:|---------------------------------|
F:|---------------------------------|
C:|---------------------------------|
G:|---------------------------------|
C:|-7^6^4--7^6^4--7^6^4---4--4------|

  Verse Riff ( it's a little bit tricky - you must improvise)
D:|-----------------------------------------------------------|
A:|-----------------------------------------------------------|
F:|-----------------------------------------------------------|
C:|-----------------------------------------------------------|
G:|--3^5----3^5---3^5--3^5-3^5-3^5------3^5--3^5--3^5---------|
C:|-----0-0----0-----0------------0-0-0----0----0-----5--3----|

 Chorus-Riff
   this Part 3 times
D:|-------------------------|---------------------------------|
A:|-------------------------|---------------------------------|
F:|-------------------------|---------------------------------|
C:|-----5-5-5-4-------------|----5-5-5-4-(4)------------------|
G:|--0--3-3-3-2-3-3-3-3-5---|-0--3-3-3-2-(2)---0-0-5-3--------|
C:|--0----------3-3-3-3-5---|-0----------------0-0-5-3--------|

   this Part 3 times
D:|-------------------------|-------------------------|
A:|-------------------------|-------------------------|
F:|-------------------------|-------------------------|
C:|-----5-5-5-4-------------|----5-5-5-4-(4)----------|
G:|--0--3-3-3-2-3-3-3-3-5---|-0--3-3-3-2-(2)----------|
C:|--0----------3-3-3-3-5---|-0-----------------------|

   Riff 1                    
D:|---------------------------------|
A:|---------------------------------|
F:|---------------------------------|
C:|---------------------------------|
G:|---------------------------------|
C:|-7^6^4--7^6^4--7^6^4---4--4------|

  Verse 2 with Verse Riff
[ Tab from: http://www.guitartabs.cc/tabs/l/life_of_agony/i_regret_tab.html ]
 Chorus-Riff (2 times)
   this Part  3 times
D:|-------------------------|---------------------------------|
A:|-------------------------|---------------------------------|
F:|-------------------------|---------------------------------|
C:|-----5-5-5-4-------------|----5-5-5-4-(4)------------------|
G:|--0--3-3-3-2-3-3-3-3-5---|-0--3-3-3-2-(2)---0-0-5-3--------|
C:|--0----------3-3-3-3-5---|-0----------------0-0-5-3--------|

Interlude

Bass plays Riff first
                this Part several times
D:|------------|-----------------------|
A:|------------|-----------------------|
F:|------------|-----------------------|
C:|------------|-----------------------|
G:|-0-0-0-0-0--|-3---3---3-------------|
C:|-0-0-0-0-0--|---3---3---3--0--------|


Chorus-Riff (2 times)
   this Part  3 times
D:|-------------------------|---------------------------------|
A:|-------------------------|---------------------------------|
F:|-------------------------|---------------------------------|
C:|-----5-5-5-4-------------|----5-5-5-4-(4)------------------|
G:|--0--3-3-3-2-3-3-3-3-5---|-0--3-3-3-2-(2)---0-0-5-3--------|
C:|--0----------3-3-3-3-5---|-0----------------0-0-5-3--------|


Guitarsolo with

 Chorus-Riff
   this Part 3 times
D:|-------------------------|---------------------------------|
A:|-------------------------|---------------------------------|
F:|-------------------------|---------------------------------|
C:|-----5-5-5-4-------------|----5-5-5-4-(4)------------------|
G:|--0--3-3-3-2-3-3-3-3-5---|-0--3-3-3-2-(2)---0-0-5-3--------|
C:|--0----------3-3-3-3-5---|-0----------------0-0-5-3--------|

 
   this Part 3 times
D:|-------------------------|-------------------------|
A:|-------------------------|-------------------------|
F:|-------------------------|-------------------------|
C:|-----5-5-5-4-------------|----5-5-5-4-(4)----------|
G:|--0--3-3-3-2-3-3-3-3-5---|-0--3-3-3-2-(2)----------|
C:|--0----------3-3-3-3-5---|-0-----------------------|

   Riff 1                    
D:|------------------------------------|
A:|------------------------------------|
F:|------------------------------------|
C:|------------------------------------|
G:|------------------------------------|
C:|-7^6^4--7^6^4--7^6^4---4--4---4-----|

End.
Comments