Life Of Agony - Heroin Dreams Chords & Tabs

 

Heroin Dreams Chords & Tabs

Life Of Agony Chords & Tabs

Version: 2 Type: Tab 0 ratings
1 star 2 stars 3 stars 4 stars 5 stars
comments

Heroin Dreams Tab

#----------------------------------PLEASE NOTE--------------------------------#
#This file is the author's own work and represents their interpretation of the#
#song. You may only use this file for private study, scholarship, or research.#
#-----------------------------------------------------------------------------#

From: "Lammert van Middendorp" 
Subject: l/life_of_agony/heroin_dreams.tab
Date: Fri, 17 Apr 1998 01:35:23 PDT







Life of Agony -- Tabs -- Heroin Dreams
Soul Searching Sun Album

Seemed like there was no tab of this song on the whole f*cking Internet,
so i did i Myself.

Tabbed By Lammert van Middendorp(McLambo@hotmail.com for suggestions or
				 corrections)


Respect goes out to my pals: Mighty B & G the Greatest.



Heroin Dreams
BY LIFE OF AGONY

TUNE DOWN A HALF STEP(ONE FRET)

Bu(X)= BEND UP TO FRET X 
r    = RELEASE BEND
sd   = SLIDE DOWN
su   = SLIDE UP
X    = SCRATCH
H    = HAMMER ON 
~~~~ = VIBRATO
/\/\ = HEAVY VIBRATO



 INTRO CLEAN WITH SLIGHT PHASING 


||-------------------------------------------------||
||-------------------------------------------------||
||--------------------------------2----------------||
||-----X-X---2---------2--X--X-X--3----------------||
||-----X-X---2--3H-----3--X--X-X--3----------------||
||-----X-X---2--3H-----3--X--X-X-------------------||
		 



	AND IT WAS NEVER ENOUGH
	AND IT WAS NEVER ENOUGH NOW
	THAT HERION STUFF
	TRAVELING THROUGH DADDY'S ARM NOW




VERSE 1

WITH DIST.
||--------------------------------------------------------------||
||--------------------------------------------------------------||
||----------------------------------------------------------2---||
||-4---4--4-4-4-----4--4---X---4--4--4----4-4--4-4--X-X-X---2---||
||-4---4--4-4-4-----4--4---X---4--4--4----4-4--4-4--X-X-X---4---||
||-0---2H-2-2-2-----2--0---X---0--2H-2----2-2--0-2H-X-X-X---4---||


	/ CUFFED IN THAT JUNK WHO KNOWS IF I WOULD SURVIVE
    1   | ONCE YOU START SHOOTING, FORGET LIVING LIVE
	| LOST IN YOUR SHADOWS, NO SOUL, NO BACKBONE
	\ SUCKED IN, LOCKED DOWN, SPINNING BREAKDOWN, HERION WHORES

	/ SCREAM AT ME, BACK SPLAP ME, CHEW OFF MY EARS
    2   | AND I CAN'T STOP THIS SICKNESS, I'VE BEEN TRYING FOR YEARS
	| DEEPER AND DEEPER LIES, SENSATIONAL FEARS
	\ THEY'RE HERE JUST TO GUIDE YOU AS WE AGE THROUGH THE YEARS


VERSE 2

|---------------------------------------------------------------------------||
|---------------------------------------------------------------------------||
|------------------4----4---4--4--4----4----4-4-----4-4-4----4-----4-4-4-4--||
|--2---2----2-2----4----4---4--4--4----4----4-4-----4-4-4----4-----4-4-4-4--||
|--2---2----2-2----2----2---2--2--2----4----4-4-----4-4-4----4-----4-4-4-4--||
|--0---0----0-0----2----2---2--2--2----2----2-2-----2-2-2----2-----2-2-2-2--||


      1 / EVERYBODY IS TALKING ABOUT HEROIN DREAMS...
	  \ WHAT THE FUCK YOU GONNA DO WITH THE REST OF YOUR LIFE?
      2   WHAT THE FUCK YOU GONNA DO WITH THE REST OF YOUR TIME?
      3   I'M LOST IN YOUR SHADOWS...






PART 3
 
|------------------------------------------------------------------||
|------------------------------------------------------------------||
|----------------7------7-7-5-7---------------------7-----7-7-5-7--||
|--5-----5-5-0---7------7-7-5-7--------7----7-7-0---7-----7-7-5-7--||
|--5-----5-5-0---5------5-5-5-5--------7----7-7-0---5-----5-5-5-5--||
|--3-----3-3-0---5------5-5-5-5--------5----7-7-0---5-----5-5-5-5--||











SOLO
								    
|------------------------------------------------------------------------||
|------------------------------------------------------------------------||
|--------------7----9Bu(11)-r--7--9Bu(11)-r-9-7---7\\\-sd----------------||
|--5--7H--5-5-0----------------------------------------------------------||
|------------------------------------------------------------------------||
|------------------------------------------------------------------------||

[ Tab from: http://www.guitartabs.cc/tabs/l/life_of_agony/heroin_dreams_tab_ver_2.html ]
|------------------------------------------------------------------------||
|------------------------------------------------------------------------||
|--------------7----9Bu(11)-r--7--9Bu(11)-r-9-7---7\\\-sd----------------||
|--5--7H--5-5-0----------------------------------------------------------||
|------------------------------------------------------------------------||
|------------------------------------------------------------------------||


|------------------------------------------------------------------------||
|------------------------------------------------------------------------||
|-------------7-9-7--9Bu(11)-r--7--9Bu(11)-r-9-7---7\\\-sd---------------||
|--5--7H--5-5------------------------------------------------------------||
|------------------------------------------------------------------------||
|------------------------------------------------------------------------||


|------------------------------------------------------------------------||
|------------------------------------------------------------------------||
|--------------7----9Bu(11)----------------------------------------------||
|--5--7H--5-5-0----------------------------------------------------------||
|------------------------------------------------------------------------||
|------------------------------------------------------------------------||


WITH SLIGHT WAH-WAH

|---------------------------------------------------------------------------|
|-12----14Bu(16)------14Bu(16)-14Bu(16)-14Bu(16)-14Bu(16)-14Bu(16)-14Bu(16)-|
|---------------------------------------------------------------------------|
|---------------------------------------------------------------------------|
|---------------------------------------------------------------------------|
|---------------------------------------------------------------------------|


|---------------------------------------||
|14Bu(16)---r-14-~~~~~~~~~~~~~~-\\\ sd--||
|---------------------------------------||
|---------------------------------------||
|---------------------------------------||
|---------------------------------------||


|------------------------------------------------------------------------------|
|///su--12---14Bu(16)----14Bu(16)-14Bu(16)-14Bu(16)-14Bu(16)-14Bu(16)-14Bu(16)-|
|------------------------------------------------------------------------------|
|------------------------------------------------------------------------------|
|------------------------------------------------------------------------------|
|------------------------------------------------------------------------------|



|---------------------------------------||
|14Bu(16)---r-14-~~~~~~~~~~~~~~-\\\ sd--||
|---------------------------------------||
|---------------------------------------||
|---------------------------------------||
|---------------------------------------||


|-----------------------------------------------------------------------------||
|-----10---10Bu(12)----10Bu(12)----10Bu(12)--------13Bu(14) 
/\/\/\/\--\\\-sd--||
|9-11H--11--------------------------------------11----------------------------||
|-----------------------------------------------------------------------------||
|-----------------------------------------------------------------------------||
|-----------------------------------------------------------------------------||

						       slowly   let ring
|-----------------------------------------------------------------------------||
|-----10---10Bu(12)----10Bu(12)----10Bu(12)--------11Bu(12) 
------------------||
|9-11H--11--------------------------------------11----------------------------||
|-----------------------------------------------------------------------------||
|-----------------------------------------------------------------------------||
|-----------------------------------------------------------------------------||

That's it, you'll have to figure out the right order yourself, but that 
shouldn't be to hard

If you have other Life Of Agony tabs(perhaps tabbed by yourself) I would 
appriciate it if you mailed them to me. (Mclambo@hotmail.com)


have phun!
(C) Middendorp 5-4-'98

That's it!
Comments