Life Of Agony - Heroin Dreams Chords & Tabs

 

Heroin Dreams Chords & Tabs

Life Of Agony Chords & Tabs

Version: 1 Type: Tab 0 ratings
1 star 2 stars 3 stars 4 stars 5 stars
comments

Heroin Dreams Tab

heroin dreams

by LIFE OF AGONY
from album 'soul searching sun'

transcribed by Christian Reindel (creindel@gmx.de)
any questions or corrections- e-mail me

TUNE DOWN ONE WHOLE STEP: Dropped C tuning

Riff 1 - clean guitar - feel free with the rhythm
D:|--------------------|
A:|--------------------|
F:|--------------------|
C:|----------5-(5)-----|
G:|-5-5-X-X--3-(3)-----|
C:|-5-5-X-X------------|

 Riff 2 - CUFFED IN THAT JUNK WHO KNOWS IF I WOULD SURVIVE
D:|--------------------------------------------------------------|
A:|--------------------------------------------------------------|
F:|--------------------------------------------------------------|
C:|----------------------------------------------5--5--5--5------|
G:|-5--5--5--5--5--5--5--5--5--5--5--5--5--5--5--3--3--3--3------|
C:|-5--5--5--5--5--5--5--5--5--5--5--5--5--5--5------------------|
[ Tab from: http://www.guitartabs.cc/tabs/l/life_of_agony/heroin_dreams_tab.html ]
Riff 3  EVERYBODY IS TALKING ABOUT HEROIN DREAMS...
D:|-------------------------------------------------------------|
A:|-------------------------------------------------------------|
F:|-------------------------------------------------------------|
C:|-----------------5--5--5--5----------------------------------|
G:|-----3--3--3--3--3--3--3--3--5--5--X--5--X--X-5-5-5-5--------|
C:|-----3--3--3--3--------------5--5--X--5--X--X-5-5-5-5--------|

Riff 4
D:|-----------------------------------------------|
A:|-----------------------------------------------|
F:|-----------------------------------------------|
C:|----------------------3--3-3-------------------|
G:|--6--6-6-1--1-1-1-X-X-1--1-1--1--1-1-1-X-X-----|
C:|--6--6-6-1--1-1-1 X-X---------1--1-1-1-X-X-----|


song structure:

Riff 1
Riff 2
Riff 3
Riff 1
Riff 2
Riff 3
Riff 4 with guitarsolo
Riff 3 guitarsolo continues
Break  Bass only
Riff 3 (until the end)

end.

Comments